Oops, an error
Loading. Please wait.

Busted Tab

4,101 views 3 this week
2 commentsread comments
1 2 3 4 5
accurate
x 7
Autoscroll
+/-
esc
set tempo
stop
Hey! There's an official Ultimate Guitar app which is ideal
for learning songs when you're away from computer. Get the app
WARNING: You are trying to view
                                    content from Ultimate-Guitar.com
                                    in an unauthorized application,
                                    which is prohibited.

                                    Please use an official Ultimate
                                    Guitar Tabs application for iPhone,
                                    iPad or Android to access legitimate
                                    chords, guitar, bass, and drum tabs
                                    from Ultimate-Guitar.com database.

                                    Type "ultimate guitar tabs" in Apple
                                    App Store's or Android Market's
                                    search to find the application.
(*)=palm mute
(~)=let it ring
(X)=muted strings
(H)=hammer on
(P)=pull off
(/)=slide

1.WHAT I GO TO SCHOOL FOR!

intro:

e-----------------------------------------|
b-----------------------------------------|
g-----------------------------------------|
d-7-7-7-7-7-7-7-7-9-9-9-9-/-12-12-12-12---| x2
a-7-7-7-7-7-7-7-7-9-9-9-9-/-12-12-12-12---|
E-5-5-5-5-5-5-5-5-7-7-7-7-/-10-10-10-10---|

verse 1:

e-------------------------------------------------------------------|
b-------------------------------------------------------------------|
g-----------------9-9-9-9-9-9-9-9-----------------7-7-7-7-7-7-7-7---|
d-7-7-7-7-7-7-7-7-9-9-9-9-9-9-9-9-4-4-4-4-4-4-4-4-7-7-7-7-7-7-7-7---| x3
a-7-7-7-7-7-7-7-7-7-7-7-7-7-7-7-7-4-4-4-4-4-4-4-4-5-5-5-5-5-5-5-5---|
E-5-5-5-5-5-5-5-5-----------------2-2-2-2-2-2-2-2-------------------|

and then

e---------------------------------------------------2--2---2--2---|
b---------------------------------------------------3--3---3--3---|
g-----------------9-9-9-9-9-9-9-9-------------------2--2---2--2---|
d-7-7-7-7-7-7-7-7-9-9-9-9-9-9-9-9-4-4-4-4-4-4-4-4-x-0--0---0--0---|
a-7-7-7-7-7-7-7-7-7-7-7-7-7-7-7-7-4-4-4-4-4-4-4-4-x---------------|
E-5-5-5-5-5-5-5-5-----------------2-2-2-2-2-2-2-2-x---------------|

chorus:

e-----------------------2-2-2-2-2-2-2-2-2-2-2-2-2-2-2-2-2-2-2-2-2-2---|
b-2-2-2-2-2-2-2-2-2-2-2-3-3-3-3-3-3-3-3-3-3-3-2-2-2-2-2-2-2-2-2-2-2---|
g-2-2-2-2-2-2-2-2-2-2-2-2-2-2-2-2-2-2-2-2-2-2-2-2-2-2-2-2-2-2-2-2-2---|
d-2-2-2-2-2-2-2-2-2-2-2-0-0-0-0-0-0-0-0-0-0-0-4-4-4-4-4-4-4-4-4-4-4---|
a-0-0-0-0-0-0-0-0-0-0-0-----------------------4-4-4-4-4-4-4-4-4-4-4---|
E---------------------------------------------2-2-2-2-2-2-2-2-2-2-2---|

e-0-0-0-0-0-0-0-0-0-0-0---|
b-0-0-0-0-0-0-0-0-0-0-0---|
g-1-1-1-1-1-1-1-1-1-1-1---|
d-2-2-2-2-2-2-2-2-2-2-2---| x2
a-2-2-2-2-2-2-2-2-2-2-2---|
E-0-0-0-0-0-0-0-0-0-0-0---|

and then

e-2-2-2-2-2-2-2-2-2-2-2----0-0-0---|
b-3-3-3-3-3-3-3-3-3-3-3----0-0-0---|
g-2-2-2-2-2-2-2-2-2-2-2----1-1-1---|
d-0-0-0-0-0-0-0-0-0-0-0----2-2-2---|
a--------------------------2-2-2---|
E--------------------------0-0-0---|

after the chorus you play this before you play the second verse

e---------------------0-~~---|
b---------------------3-~~---|
g-2-~~------4-~~------2-~~---|
d-2-~~------4-~~------0-~~---|
a-0-~~------2-~~-------------|
E----------------------------|

verse 2
chorus 2

bridge:

e-2-~~----0-~~----2-~~----2-~~----0-~~----2-~~----0-~~----2-~~----2-~~---|
b-2-~~----0-~~----3-~~----3-~~----0-~~----2-~~----0-~~----3-~~----3-~~---|
g-2-~~----1-~~----2-~~----2-~~----1-~~----2-~~----1-~~----2-~~----2-~~---|
d-4-~~----2-~~----0-~~----0-~~----2-~~----4-~~----2-~~----0-~~----0-~~---|
a-4-~~----2-~~--------------------2-~~----4-~~----2-~~-------------------|
E-2-~~----0-~~--------------------0-~~----2-~~----0-~~-------------------|

e-0-~~----2-~~----0-~~----2-~~----2-~~---     e------2---|
b-0-~~----2-~~----0-~~----3-~~----3-~~---     b------3---|
g-1-~~----2-~~----1-~~----2-~~----2-~~---     g------2---|
d-2-~~----4-~~----2-~~----0-~~----0-~~---     d------0---| x5
a-2-~~----4-~~----2-~~-------------------     a----------|
E-0-~~----2-~~----0-~~-------------------     E----------|

verse 3 (she's packed her bag.....)
chorus

outro:

e-0-~~----0-~~----0-~~----------------|
b-3-~~----0-~~----0-~~----2-~~~~~~~---|
g-2-~~----2-~~----1-~~----2-~~~~~~~---|
d-0-~~----2-~~----2-~~----2-~~~~~~~---|
a---------2-~~----2-~~----0-~~~~~~~---|
E---------0-~~----0-~~----------------|

2.YOU SAID NO!

intro:

e---------------------------------------------------------------------|
b---------------------------------------------------------------------|
g---------------------------------------------------------------------|
d-----------------------------------------------------9-9-9-9-9-8-6---|
a-9-x-x-9-x-x-9-9-9-9-x-x-9-x-x-9-6-6-6-x-x-6-x-x-6---7-7-7-7-7-6-4---|
E-7-x-x-7-x-x-7-6-6-6-x-x-6-x-x-6-4-4-4-x-x-4-x-x-4-0-----------------|

verse 1:
 play intro

pre chorus:

e-------------------------------------------------------------------|
b-------------------------------------------------------------------|
g-11-x-11--11-11-x-11-x-11--11-11-x---------------------------------|
d--9-x--9---9--9-x--9-x--9---9--9-x-11-x-11--11-11-x-4-x-4--4-4-x---|
a--7-x--7---7--7-x--7-x--7---7--7-x--9-x--9---9--9-x-4-x-4--4-4-x---|
E------------------------------------7-x--7---7--7-x-2-x-2--2-2-x---|

e-------------------------------------------------------------------------|
b-------------------------------------------------------------------------|
g-11-x-11--11-11-x-11-x-11--11-11-x-8-x-8--8-8-8-/-11-11-11-11-11-11-11---|
d--9-x--9---9--9-x--9-x--9---9--9-x-6-x-6--6-6-6-/--9--9--9--9--9--9--9---|
a--7-x--7---7--7-x--7-x--7---7--7-x-4-x-4--4-4-4-/--7--7--7--7--7--7--7---|
E-------------------------------------------------------------------------|

chorus:

e---------------------------------------------|
b---------------------------------------------|
g-----------------------1-1-1-1-1-1-1-1-1-1---|
d-9-9-9-9-9-9-9-9-9-9-2-2-2-2-2-2-2-2-2-2-2---|
a-9-9-9-9-9-9-9-9-9-9-2-2-2-2-2-2-2-2-2-2-2---|
E-7-7-7-7-7-6-6-6-6-6-0-0-0-0-0-0-0-0-0-0-0---|

  (i crashed and.......)
e--------------------------------------------|
b--------------------------------------------|
g-6-6-6-6-6-6-/-11-11-11-11-11-11-11-11-11---|
d-6-6-6-6-6-6-/--9--9--9--9--9--9--9--9--9---|
a-4-4-4-4-4-4-/--7--7--7--7--7--7--7--7--7---|
E--------------------------------------------|

play intro
verse 2
chorus 2

bridge:

e-4-x-4--4-4-x-2-x-2--2-2-x-0-x-0--0-0-x--0-x-0--0-2-2---|
b-4-x-4--4-4-x-2-x-2--2-2-x-0-x-0--0-0-x--0-x-0--0-2-2---|
g-4-x-4--4-4-x-3-x-3--3-3-x-1-x-1--1-1-x--1-x-1--1-3-3---|
d-6-x-6--6-6-x-4-x-4--4-4-x-2-x-2--2-2-x--2-x-2--2-4-4---| x2
a-6-x-6--6-6-x-4-x-4--4-4-x-2-x-2--2-2-x--2-x-2--2-4-4---|
E-4-x-4--4-4-x-2-x-2--2-2-x-0-x-0--0-0-x--0-x-0--0-2-2---|
                                                   ===
when you get to the bit underlined on the 2nd time play
this instead!

                  i know                  i'v got
e-2-2-2-2--2-2-2-2-------0-0-0-0--0-0-0-0--------|
b-2-2-2-2--2-2-2-2-------0-0-0-0--0-0-0-0--------|
g-3-3-3-3--3-3-3-3-------1-1-1-1--1-1-1-1--------|
d-4-4-4-4--4-4-4-4-------2-2-2-2--2-2-2-2--------|
a-4-4-4-4--4-4-4-4-------2-2-2-2--2-2-2-2--------|
E-2-2-2-2--2-2-2-2-------0-0-0-0--0-0-0-0--------|

                   something
e-2-2-2-2--2-2-2-2------------|
b-2-2-2-2--2-2-2-2------------|
g-3-3-3-3--3-3-3-3------------|
d-4-4-4-4--4-4-4-4------------|
a-4-4-4-4--4-4-4-4------------|
E-2-2-2-2--2-2-2-2------------|

  bet - ter  than  you  ba - by
e--0-----------2----4----4----0-~~---|
b--0-----4-----2----4----4----0-~~---|
g--1-----4-----3----4----4----1-~~---|
d--2-----4-----4----6----6----2-~~---|
a--2-----2-----4----6----6----2-~~---|
E--0-----------2----4----4----0-~~---|

for the na na's play the intro
play chorus x2

then play this at the end of the 2nd chorus to finish the song

  i crashed   and burned  at your feet
e-------------------7-~~-----------------------|
b-------------------7-~~--------------4-~~~~---|
g-4-~~--------------9-~~--------------4-~~~~---|
d-6-~~--------------9-~~--------------4-~~~~---|
a-4-~~--------------7-~~--------------2-~~~~---|
E----------------------------------------------|


3.BRITNEY.


intro:

e-12--12--12--12-12--12-10-10--10--9-10--9----------------------------------|
b------------------------------------------10--10--10-10--10-12-12--12--10--|
g---------------------------------------------------------------------------|
d---------------------------------------------------------------------------|
a---------------------------------------------------------------------------|
E---------------------------------------------------------------------------|


verse 1:

e---------------------------------------5-5-5-5-5-5-5-5---|
b-9-9-9-9-9-10-10-9--9-9-9-9-9-10-10-9--5-5-5-5-5-5-5-5---|
g-9-9-9-9-9--9--9-9--9-9-9-9-9--9--9-9--7-7-7-7-7-7-7-7---|
d-7-7-7-7-7--7--7-7--7-7-7-7-7--7--7-7--7-7-7-7-7-7-7-7---|
a--------------------9-9-9-9-9--9--9-9--5-5-5-5-5-5-5-5---|
E---------------------------------------------------------|

e---------------------|
b-9-9-9-9-9-10-10-9---|
g-9-9-9-9-9--9--9-9---|
d-9-9-9-9-9--9--9-9---|x2
a-7-7-7-7-7--7--7-7---|
E---------------------|

pre chorus:

(sweating all over...)
(must have spent...)
e-------------------------------------|
b-3-3-3-3-3-3-3-3-9-9-9-9-9-10-10-9---|
g-2-2-2-2-2-2-2-2-9-9-9-9-9--9--9-9---|
d-0-0-0-0-0-0-0-0-7-7-7-7-7--7--7-7---|
a-2-2-2-2-2-2-2-2-9-9-9-9-9--9--9-9---|
E-------------------------------------|

(traking you down....)
(you say that.....)
e-----------------5-5-5-5---------------|
b-3-3-3-3-3-3-3-3-5-5-5-5-10-10-9-9-9---|
g-2-2-2-2-2-2-2-2-7-7-7-7--9--9-9-9-9---|
d-0-0-0-0-0-0-0-0-7-7-7-7--9--9-9-9-9---|
a-2-2-2-2-2-2-2-2-5-5-5-5--7--7-7-7-7---|
E---------------------------------------|

chorus:

 i want you bri-te- ney             i
e-----------------------------------------|
b-----------------------------------------|
g-------------------7-7-7-7-7-9-9-9-9-9---|
d-7-7-7-7-7-7-7-7-7-7-7-7-7-7-9-9-9-9-9---|
a-7-7-7-7-7-7-7-7-4-5-5-5-5-5-7-7-7-7-9---|
E-5-5-5-5-5-4-4-5-------------------------|

  need you here with      me      you
e--------------------------------------|
b--------------------------------------|
g--------------------7--7----9-9-9-9---|
d-7-7-7-7-7-7-7-7-7--7--7----9-9-9-9---|
a-7-7-7-7-7-7-7-7-4--5--5----7-7-7-7---|
E-5-5-5-5-5-4-4-5----------------------|

 know that  i won't stop un - til iv got
e-----------------------------------------|
b-----------------------------------------|
g-------------------7-7-7-7-7-------------|
d-7-7-7-7-7-7-7-7-7-7-7-7-7-7-7-7-7-7-7---|
a-7-7-7-7-7-7-7-7-4-5-5-5-5-5-4-4-4-4-4---|
E-5-5-5-5-5-4-4-5-------------------------|

  you           i want  you   bri-te-ny
e-0-0-0-0-0-0-0-0-----------------------|
b-3-3-3-3-3-3-3-3-10-10-10-10-9-9-9-9---|
g-2-2-2-2-2-2-2-2--9--9--9--9-9-9-9-9---|
d-0-0-0-0-0-0-0-0--9--9--9--9-9-9-9-9---|
a-2-2-2-2-2-2-2-2--7--7--7--7-7-7-7-7---|
E---------------------------------------|

before you play the 2nd verse play this

                            i even....
e-5-5-5-5-5-5-5-5-5-5-5-5-5---------|
b-5-5-5-5-5-5-5-5-5-5-5-5-5-9-9-9---|
g-7-7-7-7-7-7-7-7-7-7-7-7-7-9-9-9---|
d-7-7-7-7-7-7-7-7-7-7-7-7-7-9-9-9---|
a-5-5-5-5-5-5-5-5-5-5-5-5-5-7-7-7---|
E-----------------------------------|

verse 2
pre chorus
chorus 2

bridge:
 every....   do....   i'll become...     you drive...
e--------------------------------------------------|
b--------------------------------------------------|
g--------------7------------------------7-7--------|
d-7-7--------7-7-----7-7--------------7-7-7--------|
a-7-7--------4-5-----7-7--------------4-5-5--------|
E-5-5----------------5-5---------------------------|

  crazy
e---------|
b---------|
g-9-9-9---|
d-9-9-9---|
a-7-7-7---|
E---------|

play the (you know that i won't stop until i'v got you) bit again!
when you get to the (i want you bri-te-ny)bit play this after it!

e-----------------------------------------------------------------------|
b-9-----9--9---9--10--9---7---7-7--7-7-7---7-/-9--9----9--9--9--10--9---|
g----9--9--9---9-------7---7--7--7--7--7--7---------9--9--9--9----------|
d-----------------------------------------------------------------------|
a-----------------------------------------------------------------------|
E-----------------------------------------------------------------------|

e-----------------------------------------------------------------------|
b-----7-----7--7--7--6--6--7-/-9--9-----9--9--9--10--9-----7-----7--7---|
g--7-----7--7--7--7--7--7------------9--9--9--9---------7-----7--7--7---|
d-----------------------------------------------------------------------|
a-----------------------------------------------------------------------|
E-----------------------------------------------------------------------|

e------------------------------------------------------------------------|
b----7--7--7--7-/-9--9-----9--9--9--10--9-----7----7--7--7--7--7--7--7---|
g----7--7--7------------9--9--9--9---------7----7--7--7--7--7--7--7--7---|
d------------------------------------------------------------------------|
a------------------------------------------------------------------------|
E------------------------------------------------------------------------|

play the chorus x2

end on this

e-----------|
b-----------|
g-----------|
d-7-~~~~~---|
a-7-~~~~~---|
E-5-~~~~~---|


4.LOSING YOU!

intro:

e-2-2-2-2-2-2-2-2-2-2-2-2-0-0-0-0-0-0-0-0-0-0-0-0-3-3-3-3-3-3-3-3-3-3-3-3---|
b-3-3-3-3-3-3-3-3-3-3-3-3-3-3-3-3-3-3-3-3-3-3-3-3-0-0-0-0-0-0-0-0-0-0-0-0---|
g-2-2-2-2-2-2-2-2-2-2-2-2-2-2-2-2-2-2-2-2-2-2-2-2-0-0-0-0-0-0-0-0-0-0-0-0---|
d-0-0-0-0-0-0-0-0-0-0-0-0-2-2-2-2-2-2-2-2-2-2-2-2-0-0-0-0-0-0-0-0-0-0-0-0---|
a-------------------------0-0-0-0-0-0-0-0-0-0-0-0-2-2-2-2-2-2-2-2-2-2-2-2---|
E-------------------------------------------------------0-0-0-0-0-0-0-0-0---|

e-2-2-2-2-2-0-0-0-0-0-0-0---|
b-0-0-0-0-0-0-0-0-0-0-0-0---|
g-0-0-0-0-0-0-0-0-0-0-0-0---|
d-0-0-0-0-0-0-0-0-0-0-0-0---|
a-2-2-2-2-2-2-2-2-2-2-2-2---|
E-3-3-3-3-3-3-3-3-3-3-3-3---|

verse 1:
play intro

pre chorus:

e-0-0-0-0-0-0-0-0-0-------0-0-0-0-0-0-0-0-0---|
b-3-3-3-3-3-3-3-3-3-3-3-3-3-3-3-3-3-3-3-3-3---|
g-0-0-0-0-0-0-0-0-0-2-2-2-0-0-0-0-0-0-0-0-0---|
d-0-0-0-0-0-0-0-0-0-0-0-0-0-0-0-0-0-0-0-0-0---|
a-2-2-2-2-2-2-2-2-2-0-0-0-2-2-2-2-2-2-2-2-2---|
E-0-0-0-0-0-0-0-0-0-2-2-2-3-3-3-3-3-3-3-3-3---|

chorus:

e-0-0-0-0-2-2-2-2-2-2-2-2-2-2-2-2-0-0-0-0-0-0-0-0-0---------|
b-3-3-3-3-3-3-3-3-3-3-3-3-3-3-3-3-3-3-3-3-3-3-3-3-3-3-3-3---|
g-0-0-0-0-2-2-2-2-2-2-2-2-2-2-2-2-0-0-0-0-0-0-0-0-0-2-2-2---|
d-0-0-0-0-0-0-0-0-0-0-0-0-0-0-0-0-0-0-0-0-0-0-0-0-0-0-0-0---|
a-2-2-2-2-------------------------2-2-2-2-2-2-2-2-2-0-0-0---|
E-3-3-3-3-------------------------0-0-0-0-0-0-0-0-0-2-2-2---|

e-0-0-0-0-0-0-0-0-0-0-0-0-0-0-0-0-0-0-0-0-0-0-0-0-2-2-2-2-2-2-2-2-2-2-2-2---|
b-3-3-3-3-3-3-3-3-3-3-3-3-3-3-3-3-3-3-2-2-2-2-2-2-3-3-3-3-3-3-3-3-3-3-3-3---|
g-0-0-0-0-0-0-0-0-0-0-0-0-0-0-0-0-0-0-0-0-0-0-0-0-2-2-2-2-2-2-2-2-2-2-2-2---|
d-0-0-0-0-0-0-0-0-0-0-0-0-2-2-2-2-2-2-2-2-2-2-2-2-0-0-0-0-0-0-0-0-0-0-0-0---|
a-2-2-2-2-2-2-2-2-2-2-2-2-0-0-0-0-0-0-0-0-0-0-0-0---------------------------|
E-3-3-3-3-3-3-3-3-3-3-3-3---------------------------------------------------|

e-0-0-0-0-0-0-0-0-0-------0-0-0-0-0-0-0-0-0-0-0-0-0-0-0-0-0-0---|
b-3-3-3-3-3-3-3-3-3-3-3-3-3-3-3-3-3-3-3-3-3-3-3-3-3-3-3-3-3-3---|
g-0-0-0-0-0-0-0-0-0-2-2-2-0-0-0-0-0-0-0-0-0-0-0-0-0-0-0-0-0-0---|
d-0-0-0-0-0-0-0-0-0-0-0-0-0-0-0-0-0-0-0-0-0-0-0-0-2-2-2-2-2-2---|
a-2-2-2-2-2-2-2-2-2-0-0-0-2-2-2-2-2-2-2-2-2-2-2-2-0-0-0-0-0-0---|
E-0-0-0-0-0-0-0-0-0-2-2-2-3-3-3-3-3-3-3-3-3-3-3-3---------------|

e-0-0-0-0-0-0--2-~~~---|
b-2-2-2-2-2-2--3-~~~---|
g-0-0-0-0-0-0--2-~~~---|
d-2-2-2-2-2-2--0-~~~---|
a-0-0-0-0-0-0----------|
E----------------------|

silence

verse 2
chorus 2

bridge:
            (so tell me what...)
e-0-0-0-0-0-----------------0-0-0-0---3-3-3-3-3-3-3-3-3-3-3-3---|
b-1-1-1-1-1-----------------1-1-1-1---0-0-0-0-0-0-0-0-0-0-0-0---|
g-0-0-0-0-0-----------------0-0-0-0---0-0-0-0-0-0-0-0-0-0-0-0---|
d-2-2-2-2-2-----------------2-2-2-2---0-0-0-0-0-0-0-0-0-0-0-0---|
a-3-3-3-3-3-----------------3-3-3-3---2-2-2-2-2-2-2-2-2-2-2-2---|
E-------------------------------------3-3-3-3-3-3-3-3-3-3-3-2---|

e-2-2-2-2-2-2-2-2-2-2-2-2-0-0-0-0-0-0-0-0-0-0-0-0-0-0-0-0-0-0-0----3-~~~---|
b-3-3-3-3-3-3-3-3-3-3-3-3-2-2-2-2-2-2-2-2-2-2-2-2-3-3-3-3-3-3-3-3--0-~~~---|
g-2-2-2-2-2-2-2-2-2-2-2-2-0-0-0-0-0-0-0-0-0-0-0-0-0-0-0-0-0-0-0-2--0-~~~---|
d-0-0-0-0-0-0-0-0-0-0-0-0-2-2-2-2-2-2-2-2-2-2-2-2-0-0-0-0-0-0-0-0--0-~~~---|
a-------------------------0-0-0-0-0-0-0-0-0-0-0-0-2-2-2-2-2-2-2-0--2-~~~---|
E---------------------------------------------------0-0-0-0-0-0-2--3-~~~---|

e--3-~~~~~---|
b--0-~~~~~---|
g--0-~~~~~---|
d--0-~~~~~---|
a--2-~~~~~---|
E--3-~~~~~---|

chorus

outro:

e-2-2-2-2-2-2-2-2-2-0-2-2-0-0-0-0-0-0-0-0-0-0---------|
b-3-3-3-3-3-3-3-3-3-3-3-3-3-3-3-3-3-3-3-3-3-3-3-3-3---|
g-2-2-2-2-2-2-2-2-2-2-2-2-2-0-0-0-0-0-0-0-0-0-2-2-2---|
d-0-0-0-0-0-0-0-0-0-0-0-0-0-0-0-0-0-0-0-0-0-0-0-0-0---|
a---------------------------2-2-2-2-2-2-2-2-2-0-0-0---|
E---------------------------0-0-0-0-0-0-0-0-0-2-2-2---|

e-0-0-0-0-0-0-0-0-0-0-0-0-0-0-0-0-0-0-0--0--0-----------|
b-3-3-3-3-3-3-3-3-3-3-3-3-3-3-3-3-3-3-3--2--2--3-~~~~---|
g-0-0-0-0-0-0-0-0-0-0-0-0-0-2-2-2-2-2-2--2--2--2-~~~~---|
d-0-0-0-0-0-0-0-0-0-0-0-0-0-2-2-2-2-2-2--2--2--0-~~~~---|
a-2-2-2-2-2-2-2-2-2-2-2-2-2-0-0-0-0-0-0--0--0-----------|
E-3-3-3-3-3-3-3-3-3-3-3-3-3-----------------------------|


5.YEAR 3000

intro:

e-------------------------------------------------------|
b------2/4----------------------------------------------|
g----------4--------1/3-----------------------4-----4---|
d------------4----------4---------4/6---------4-----4---|
a-2-2---------------------4-----------7-------2-----4---|
E--------------2-2-----------0-0--------7--0-----2------|

e----------2---------------2-------------2---------------2---------|
b------------------------------------------------------------------|
g---------------4--------------4--------------4----------------4---|
d------------------------------------------------------------------|
a--2---------------------------------------------------------------|
E--------------------2--------------0----------------0-------------|

e--------7--7-------------------------------------------------|
b--------7--7-----------11--11--------9--9---4/5--5--5--5/4---|
g--------8--8-----------11--11--------9--9---4/4--4--4--4/4---|
d--------9--9---11-11---11--11--9--9--9--9---4/6--6--6--6/6---|
a--9--9----------9--9-----------7--7---------4/4--4--4--4/4---|
E--7--7-------------------------------------------------------|

verse 1:

e----------2--2-----0--0-------0---2---|
b-4--4-----2--2-----0--0-------0---2---|
g-4--4-----3--3-----1--1-------1---3---|
d-4--4-----4--4-----2--2-------2---4---| x3
a-2--2-----4--4-----2--2-------2---4---|
E----------2--2-----0--0-------0---2---|

pre chorus:

e--4-4-4-4-4-4-4-4-4-4-4--2-2-2-2-2-2-2-2-2-2-2---|
b--4-4-4-4-4-4-4-4-4-4-4--2-2-2-2-2-2-2-2-2-2-2---|
g--4-4-4-4-4-4-4-4-4-4-4--3-3-3-3-3-3-3-3-3-3-3---|
d--6-6-6-6-6-6-6-6-6-6-6--4-4-4-4-4-4-4-4-4-4-4---|
a--6-6-6-6-6-6-6-6-6-6-6--4-4-4-4-4-4-4-4-4-4-4---|
E--4-4-4-4-4-4-4-4-4-4-4--2-2-2-2-2-2-2-2-2-2-2---|

e-0-0-0-0-0-0-0-0-0-0-0-0-0-0-0-0-0-0-0-0-0-0---|
b-0-0-0-0-0-0-0-0-0-0-0-0-0-0-0-0-0-0-0-0-0-0---|
g-1-1-1-1-1-1-1-1-1-1-1-1-1-1-1-1-1-1-1-1-1-1---|
d-2-2-2-2-2-2-2-2-2-2-2-2-2-2-2-2-2-2-2-2-2-2---|
a-2-2-2-2-2-2-2-2-2-2-2-2-2-2-2-2-2-2-2-2-2-2---|
E-0-0-0-0-0-0-0-0-0-0-0-0-0-0-0-0-0-0-0-0-0-0---|

chorus:

e-------7--7--7--------2--2--2-----------------0-0-0-0-0---|
b-------7--7--7--------2--2--2--------0--0--0--0-0-0-0-0---|
g-------8--8--8--------3--3--3--------1--1--1--1-1-1-1-1---|
d-------9--9--9--------4--4--4--------2--2--2--2-2-2-2-2---|x4
a-9--9-----------4--4-----------2--2-----------2-2-2-2-2---|
E-7--7-----------2--2-----------0--0-----------0-0-0-0-0---|

verse
chorus 2

bridge:

e----------------------------------|
b----------------------------------|
g-------11--11--9--9-----9----11---|
d-9--9--11--11--9--9-----9----11---| x4
a-9--9---9---9--7--7-----7-----9---|
E-7--7-----------------------------|

pre chorus

chorus:

e------------------------------------------------------------------------|
b----------4-------------------------------------------------------------|
g------4-----4---4-----------3----------------4----------------4---------|
d----4---4-----4---------4-----4---4------4-----4---4------4-----4---4---| x4
a--2-------------------4---4-----4------2---2-----2------2---2-----2-----|
E--------------------2----------------0----------------0-----------------|

normal chorus x3

on 3rd chorus play quietly and end with this

e-------7--7-----------------------|
b-------7--7--------11--11---------|
g-------8--8--------11--11---------|
d-------9--9--11-11-11--11--9--9---|
a-9--9---------9--9---------7--7---|
E-7--7-----------------------------|

6.PSYCHO GIRL

intro:

e-5-5---5-5-5-5-x-4-4---4-4-4-4-4-x---|
b-5-5---5-5-5-5-x-5-5---5-5-5-5-5-x---|
g-6-6-6-6-6-6-6-x-6-6-6-6-6-6-6-5-x---|
d-7-7-7-7-7-7-7-x-6-6-6-6-6-6-6-6-x---| x2
a-7-7-7-7-7-7-7-x-4-4-4-4-4-4-4-4-x---|
E-5-5-5-5-5-5-5-x-4-4-4-4-4-4-4-4-x---|

verse 1:

play intro

pre chorus:

e-2-2-2-2-2-2-2---2-2-2-----2-2-2-2-2-2---2----2-2--x---|
b-3-3-3-3-3-3-3---2-2-2H3---3-3-3-3-3-3---2H3--3-3--x---|
g-2-2-2-2-2-2-2---2-2-2-----2-2-2-2-2-2---2----2-2--x---|
d-4-4-4-4-4-4-4---2-2-2H4---4-4-4-4-4-4---2H4--4-4--x---|
a-2-2-2-2-2-2-2---2-2-2-----2-2-2-2-2-2---2----2-2--x---|
E---------------------------------------------------x---|


e-5-5-5-5-5-5-5-5-5-5-5-5-5-5-5-5-5-5-5-5-5-5---|
b-6-6-6-6-6-6-6-6-6-6-6-6-6-6-6-6-6-6-6-6-6-6---|
g-5-5-5-5-5-5-5-5-5-5-5-5-5-5-5-5-5-5-5-5-5-5---|
d-7-7-7-7-7-7-7-7-7-7-7-7-7-7-7-7-7-7-7-7-7-7---|
a-5-5-5-5-5-5-5-5-5-5-5-5-5-5-5-5-5-5-5-5-5-5---|
E-----------------------------------------------|

chorus:

e-5-5-5-5-5-5-5-5-5-5-5-0-0-0-0-0-0-0-0-0-0-0---|
b-5-5-5-5-5-5-5-5-5-5-5-0-0-0-0-0-0-0-0-0-0-0---|
g-6-6-6-6-6-6-6-6-6-6-6-1-1-1-1-1-1-1-1-1-1-1---|
d-7-7-7-7-7-7-7-7-7-7-7-2-2-2-2-2-2-2-2-2-2-2---|
a-7-7-7-7-7-7-7-7-7-7-7-2-2-2-2-2-2-2-2-2-2-2---|
E-5-5-5-5-5-5-5-5-5-5-5-0-0-0-0-0-0-0-0-0-0-0---|

e-2-2-2-2-2-2-2-2-2-2-2-5-5-5-5-5-5-5-5-5-5-5---|
b-3-3-3-3-3-3-3-3-3-3-3-6-6-6-6-6-6-6-6-6-6-6---|
g-2-2-2-2-2-2-2-2-2-2-2-5-5-5-5-5-5-5-5-5-5-5---|
d-4-4-4-4-4-4-4-4-4-4-4-7-7-7-7-7-7-7-7-7-7-7---| x2
a-2-2-2-2-2-2-2-2-2-2-2-5-5-5-5-5-5-5-5-5-5-5---|
E-----------------------------------------------|


before you play the 2nd verse play this

e---------------------|
b-5-~~~~-----5-~~~~---|
g-6-~~~~-----6-~~~~---|
d-7-~~~~-----6-~~~~---|
E-5-~~~~-----4-~~~~---|

verse 2
pre chorus
chorus 2

bridge:

e--5-5-5-5-5-5-5-5-5-5-5-0-0-0-0-0-0-0-0-0-0-0-2-2-2-2-2-2-2-2-2-2-2---|
b--5-5-5-5-5-5-5-5-5-5-5-0-0-0-0-0-0-0-0-0-0-0-3-3-3-3-3-3-3-3-3-3-3---|
g--6-6-6-6-6-6-6-6-6-6-6-1-1-1-1-1-1-1-1-1-1-1-2-2-2-2-2-2-2-2-2-2-2---|
d--7-7-7-7-7-7-7-7-7-7-7-2-2-2-2-2-2-2-2-2-2-2-4-4-4-4-4-4-4-4-4-4-4---|
a--7-7-7-7-7-7-7-7-7-7-7-2-2-2-2-2-2-2-2-2-2-2-2-2-2-2-2-2-2-2-2-2-2---|
E--5-5-5-5-5-5-5-5-5-5-5-0-0-0-0-0-0-0-0-0-0-0-------------------------|

e--2-2-2-2-2-0-0-0-0-0-0---|
b--2-2-2-2-2-0-0-0-0-0-0---|
g--2-2-2-2-2-1-1-1-1-1-1---|
d--4-4-4-4-4-2-2-2-2-2-2---|
a--4-4-4-4-4-2-2-2-2-2-2---|
E--2-2-2-2-2-0-0-0-0-0-0---|

pre chorus
chorus

in the chorus instead of strumming let the chords ring.

repeat the normal chorus to fade.

7.ALL THE WAY

intro:

e-----------------------------------------|
b-----------------------------------------|
g-----------------------------------------|
d-----------------------------------------| x2
a--0--------5/7-------7/9------11----12---|
E-----------------------------------------|

verse 1:

e-5-5-5-5-5-5-5-5-5-5-5-4-4-4-4-4-4-4-4-4-4-4---|
b-5-5-5-5-5-5-5-5-5-5-5-5-5-5-5-5-5-5-5-5-5-5---|
g-6-6-6-6-6-6-6-6-6-6-6-6-6-6-6-6-6-6-6-6-6-6---|
d-7-7-7-7-7-7-7-7-7-7-7-6-6-6-6-6-6-6-6-6-6-6---|
a-----------------------------------------------|
E-----------------------------------------------|

e-2-2-2-2-2-0-0-0-0-0-0-0-0-0-0-0-0-0-0-0-0-0---|
b-2-2-2-2-2-0-0-0-0-0-0-2-2-2-2-2-2-2-2-2-2-2---|
g-2-2-2-2-2-1-1-1-1-1-1-2-2-2-2-2-2-2-2-2-2-2---|
d-4-4-4-4-4-2-2-2-2-2-2-0-0-0-0-0-0-0-0-0-0-0---| x2
a-----------------------------------------------|
E-----------------------------------------------|


chorus 1:

e---------------------------------------------------------|
b-2-2-2-2-2-9-9-9-9-9-3-3-3-3-3-7-7-7-7-7-9-9-9-9-9-9-9---|
g-2-2-2-2-2-9-9-9-9-9-2-2-2-2-2-7-7-7-7-7-9-9-9-9-9-9-9---|
d-2-2-2-2-2-9-9-9-9-9-4-4-4-4-4-7-7-7-7-7-9-9-9-9-9-9-9---| x2
a-0-0-0-0-0-7-7-7-7-7-2-2-2-2-2-5-5-5-5-5-7-7-7-7-7-7-7---|
E---------------------------------------------------------|
                                =======================
on the 2nd time playing the chorus were i'v underlind play this

e-7--7/9--9-9--9---|
b-7--7/9--9-9--9---|
g-7--7/9--9-9--9---|
d-5--5/9--7-7--7---|
a------------------|
E------------------|

verse 2
chorus 2

bridge:

e--0-~~~------0-~~~------0-~~~------0-~~~-------0-~~~------0-~~~---|
b--2-~~~------0-~~~------2-~~~------2-~~~-------0-~~~------2-~~~---|
g--2-~~~------6-~~~------2-~~~------2-~~~-------1-~~~------2-~~~---|
d--4-~~~------6-~~~------0-~~~------0-~~~-------2-~~~------4-~~~---|
a------------------------------------------------------------------|
E------------------------------------------------------------------|

e--0-~~~------0-~~~---|
b--0-~~~------2-~~~---|
g--1-~~~------2-~~~---|
d--2-~~~------0-~~~---|
a---------------------|
E---------------------|

chorus

end on

e------|
b------|
g--2---|
d--2---|
a--0---|
E------|

8.SLEEPING WITH THE LIGHT ON!

capo on 1st fret

intro:

e-3-3-3-3-3-3-3-3-3-3-3-3-3-3-3-3-3-3-3-3-3---|
b-3-3-3-3-3-3-3-3-3-3-3-3-3-3-3-3-3-3-3-3-3---|
g-0-0-0-0-0-0-0-0-0-0-0-0-0-0-0-0-0-0-0-0-0---|
d-0-0-0-0-0-0-0-0-0-0-0-2-2-2-2-2-2-2-2-2-2---| x2
a-2-2-2-2-2-2-2-2-2-2-2-3-3-3-3-3-3-3-3-3-3---|
E-3-3-3-3-3-3-3-3-3-3-3-----------------------|

verse 1:
play the intro twice then play this

e-3-3-3-3-3-3-3-3-3-3-2-2-2-2-2-2-2-2-2-2-0-0-0-0-0-0-0-0-0-0---|
b-3-3-3-3-3-3-3-3-3-3-3-3-3-3-3-3-3-3-3-3-3-3-3-3-3-3-3-3-3-3---|
g-0-0-0-0-0-0-0-0-0-0-2-2-2-2-2-2-2-2-2-2-0-0-0-0-0-0-0-0-0-0---|
d-0-0-0-0-0-0-0-0-0-0-0-0-0-0-0-0-0-0-0-0-2-2-2-2-2-2-2-2-2-2---|
a-2-2-2-2-2-2-2-2-2-2---------------------3-3-3-3-3-3-3-3-3-3---|
E-0-0-0-0-0-0-0-0-0-0-------------------------------------------|

         (i feel her...)
e--3-3-3---|
b--3-3-3---|
g--0-0-0---|
d--2-2-2---|
a--3-3-3---|
E----------|


chorus:

e--3-3-3-3-3-3-2-2-2-2-2-2-2-2-3-3-3-3-3-3-3-3-3-3-3-2-2-2-2-2-2---|
b--3-3-3-3-3-3-3-3-3-3-3-3-3-3-3-3-3-3-3-3-3-3-3-3-3-3-3-3-3-3-3---|
g--0-0-0-0-0-0-2-2-2-2-2-2-2-2-0-0-0-0-0-0-0-0-2-2-2-2-2-2-2-2-2---|
d--0-0-0-0-0-0-4-4-4-4-4-4-4-4-2-2-2-2-2-2-2-2-0-0-0-0-0-0-0-0-0---| x2
a--2-2-2-2-2-2-2-2-2-2-2-2-2-2-3-3-3-3-3-3-3-3---------------------|
E--3-3-3-3-3-3-----------------------------------------------------|
                                               =================
on the 2nd time were i'v underlined miss it out and play this instead.

e----------|
b--4-------|
g--5-~~~---|
d--5-~~~---|
a--3-~~~---|
E----------|

verse 2
chorus

bridge:

i see the sight,with a dif....,words can....,          coz i'v...
e--3-3-3-3-3-3-3-3-3-3-3-3-3-3-3-3-3-3-3-3-3-2-2-2-2-2-2-2-2---|
b--3-3-3-3-3-3-3-3-3-3-3-3-3-3-3-3-3-3-3-3-3-3-3-3-3-3-3-3-3---|
g--0-0-0-0-0-0-0-0-0-0-0-0-0-0-0-0-0-0-0-0-0-2-2-2-2-2-2-2-2---|
d--0-0-0-0-0-0-0-2-2-2-2-2-2-2-0-0-0-0-0-0-0-0-0-0-0-0-0-0-0---|
a--2-2-2-2-2-2-2-3-3-3-3-3-3-3-2-2-2-2-2-2-2-------------------|
E--0-0-0-0-0-0-0---------------3-3-3-3-3-3-3-------------------|


            for the  words...........
e--0--0--0--0--0--0--0--3--3--3--3--3--3--3---|
b--1--1--1--1--1--1--1--3--3--3--3--3--3--3---|
g--0--0--0--0--0--0--0--0--0--0--0--0--0--0---|
d--2--2--2--2--2--2--2--0--0--0--0--0--0--0---|
a--3--3--3--3--3--3--3--2--2--2--2--2--2--2---|
E---------------------------------------------|


play chorus quietly the play this

e--------------------------------------------------------------------|
b--12-11----------------12-11-------12-11-------------------9-11-9---|
g--------10-10-11-11-11-------11-10-------10-10-11-11-11-11----------|
d--------------------------------------------------------------------|
a--------------------------------------------------------------------|
E--------------------------------------------------------------------|

e--------------------------------------------------------------------|
b--12-11----------------12-11-------12-11-------------------9-11-9---|
g--------10-10-11-11-11-------11-10-------10-10-11-11-11-11----------|
d--------------------------------------------------------------------|
a--------------------------------------------------------------------|
E--------------------------------------------------------------------|

chorus x2

end on

e----------------|
b----------------|
g----------------|
d--5-~~~~~~~~~---|
a--5-~~~~~~~~~---|
E--3-~~~~~~~~~---|

9.DAWSON'S GEEK!

capo on 1st fret

intro:

e-----3---2-----0----0---0-2-0---------3---2-----0----0---0-2-0-----|
b---3-------3------3---3-------3-----3-------3------3---3-------3---|
g-0-----0-----0--------------------0-----0-----0--------------------|
d-------------------------------------------------------------------|
a-------------------------------------------------------------------|
E-------------------------------------------------------------------|

verse 1:

play intro.

pre chorus:

e------------------------------------|
b------------------------------------|
g-----9-9-----7-7------5-5-----7-7---|
d-9-9-9-9-7-7-7-7--5-5-5-5-7-7-7-7---| x2
a-7-7-----5-5------3-3-----5-5-------|
E-*-*-----*-*------*-*-----*-*-------|
                   ================

on the 2nd time were i'v underlined skip it and play this instead

e-----------------------------------|
b-----------------------------------|
g-5-5-5-5-5-5-5-5-7-7-7-7-7-7-7-7---|
d-5-5-5-5-5-5-5-5-7-7-7-7-7-7-7-7---|
a-3-3-3-3-3-3-3-3-5-5-5-5-5-5-5-5---|
E-----------------------------------|

chorus:

e-3-3-3-3-3-3-3-3-3-3-3-3-3-3-3-3-3-3-3-3-3-3-3-3---|
b-3-3-3-3-3-3-3-3-3-3-3-3-3-3-3-3-3-3-3-3-3-3-3-3---|
g-0-0-0-0-0-0-0-0-0-0-0-0-0-0-0-0-0-0-0-0-0-0-0-0---|
d-0-0-0-0-0-0-2-2-2-0-0-0-0-0-0-0-0-0-2-2-2-0-0-0---|
a-2-2-2-0-0-0-3-3-3-2-2-2-2-2-2-0-0-0-3-3-3-2-2-2---|
E-3-3-3-2-2-2-------------3-3-3-2-2-2---------------|
  ================================================

   self  -    -    -    -
e--2-2-2-2-----3-3-3-3-3-3---|
b--3-3-3-3-----3-3-3-3-3-3---|
g--2-2-2-2-----0-0-0-0-0-0---|
d--0-0-0-0-----2-2-2-2-2-2---|
a--------------3-3-3-3-3-3---|
E----------------------------|


repeat the underlined bit then play this

  dawson's, dawson's geek
e--3-3-3-3-3--------3-3-3-3-3-3---|
b--3-3-3-3-3--------3-3-3-3-3-3---|
g--0-0-0-0-0--------0-0-0-0-0-0---|
d--2-2-2-2-2--------0-0-0-0-0-0---|
a---------------------------------|
E---------------------------------|


then play this until you get into the 2nd verse

e--3---|
b--3---|
g--0---|
d--2---|
a--3---|
E------|

verse 2
chorus 2

bridge:

e-0-0-------------0-0-------------0-0-------------0-0-7-7-----------|
b-----3-3-0-0-3-3-----3-3-0-0-3-3-----3-3-----3-3-------------3-3---|
g-----------------------------------------2-2-------------2-2-------|
d-------------------------------------------------------------------|
a-------------------------------------------------------------------|
E-------------------------------------------------------------------|

e----------------------------------------------------------------------|
b--1-1-0-0-----0-0-1-1-0-0-----0-0-------------------------------------|
g----------0-0-------------0-0-------7-7-7-7-7-7-7-7-7-7-7-7-7-7-7-7---|
d------------------------------------7-7-7-7-7-7-7-7-7-7-7-7-7-7-7-7---|
a------------------------------------5-5-5-5-5-5-5-5-5-5-5-5-5-5-5-5---|
E----------------------------------------------------------------------|


solo bit after the bridge

e-10-10----10----10--------------10----10----10------------|
b-------12----12----12-10-----------12----12----12-10------|
g-------------------------12--------------------------12---|
d----------------------------------------------------------|
a----------------------------------------------------------|
E----------------------------------------------------------|


e---------------------------|
b--10-10----10--------------|
g--------12----12-11-9------|
d----------------------12---|
a---------------------------|
E---------------------------|


chorus x2

end song with this

e---3-~~~~~~~---|
b---3-~~~~~~~---|
g---0-~~~~~~~---|
d---0-~~~~~~~---|
a---2-~~~~~~~---|
E---3-~~~~~~~---|


10.WHEN DAY TURNS INTO NIGHT

capo on 4th fret.


intro:

e--------------------------------------------------------------------|
b--------------------------------------------------------------------|
g--------------------------------------------------------------------|
d------------------2-2-2-2-2-2-2-0-2-2-2-2-2-2-2-0-2-2-2-2-2-2-2-0---|
a--2-2-2-2-2-2-2-0-4-4-4-4-4-4-4-0-2-2-2-2-2-2-2-0-3-3-3-3-3-3-3-0---|
E--3-3-3-3-3-3-3-0---------------------------------------------------|

verse 1:

play intro x4

chorus:

e-----------------------------------------------------------------------|
b-----------------------------------------------------------------------|
g----------------------------------0-0-0-0-0-0-0-0-0-0-0-0-0-0-0-0--0---|
d--0-0-0-0-0-0-0-0-0-0-0-0-0-0-0-0-0-0-0-0-0-0-0-0-0-0-0-0-0-0-0-0--0---|
a--2-2-2-2-2-2-2-2-0-0-0-0-0-0-0-0-7-7-7-7-7-7-7-7-7-7-7-7-7-7-7-7--0---|
E--3-3-3-3-3-3-3-3-2-2-2-2-2-2-2-2-8-8-8-8-8-8-8-8-8-8-8-8-8-8-8-8--0---|
  ================================================================

e---------------------------------------------------------------------------|
b---------------------------------------------------------------------------|
g--0-0-0-0-0-0-0-0-------------------------0-0-0-0-0-0-0-0-0-0-0-0-0-0-0-0--|
d--2-2-2-2-2-2-2-2--0--0--0--0--0--0--0--0-0-0-0-0-0-0-0-0-0-0-0-0-0-0-0-0--|
a--2-2-2-2-2-2-2-2--9--9--9--9--9--9--9--9-7-7-7-7-7-7-7-7-7-7-7-7-7-7-7-7--|
E--0-0-0-0-0-0-0-0-10-10-10-10-10-10-10-10-8-8-8-8-8-8-8-8-8-8-8-8-8-8-8-8--|

play the underlined part again then play this

                                                 when the day turns into
e-------------------------------------------------------|           night.
b-------------------------------------------------------|
g--0-0-0-0-0-0-0-0-0-0-0-0-0-0-0-0-0-0-0-0---0-~~~~~~---|
d--4-4-4-0-2-2-2-2-2-2-2-2-2-2-2-2-2-2-2-2---2-~~~~~~---|
a--5-5-5-0-2-2-2-2-2-2-2-2-0-0-0-0-0-0-0-0---3-~~~~~~---|
E----------0-0-0-0-0-0-0-0------------------------------|

play intro
verse 2
chorus

 the solo part is the violin solo

e--------5--3-2-3----------------------5-3-2-3------|
b--0-1-3--------------3-------0--0-1-3----------0---|
g------------------0--------------------------------|
d---------------------------------------------------|
a---------------------------------------------------|
E---------------------------------------------------|

e--7-5-3-5-3-2-3------------|
b------------------0-~~~~---|
g---------------------------|
d---------------------------|
a---------------------------|
E---------------------------|

chorus
then play the intro x2

miss out this part on the 2nd time

e------------|
b------------|
g------------|
d--2-2-2-2---|
a--3-3-3-3---|
E------------|

instead play this to end the song

e------------|
b------------|
g--0-~~~~~---|
d--2-~~~~~---|
a--3-~~~~~---|
E------------|


11.EVERYTHING I KNEW!


verse 1:

e--10-10-10-x-10-10-10-10-x-10-10-10-10--10-10-10-x-10-10-10-10-x---|
b--10-10-10-x-10-10-10-10-x-10-10-10-10--10-10-10-x-10-10-10-10-x---|
g---0--0--0-x--0--0--0--0-x--0--0--0--0---0--0--0-x--0--0--0--0-x---|
d---9--9--9-x--9--9--9--9-x--9--9--9--9---9--9--9-x--9--9--9--9-x---|
a--10-10-10-x-10-10-10-10-x-10-10-10-10---9--9--9-x--9--9--9--9-x---|
E-------------------------------------------------------------------|

e--10-10-10-10-3-3-3-x-3-3-3-3-x-3-3-3-3-3-3-3-x-3-3-3-3-x-3-3-x-x---|
b--10-10-10-10-3-3-3-x-3-3-3-3-x-3-3-3-3-3-3-3-x-3-3-3-3-x-3-3-x-x---|
g---0--0--0--0-0-0-0-x-0-0-0-0-x-0-0-0-0-0-0-0-x-0-0-0-0-x-0-0-x-x---|
d---9--9--9--9-2-2-2-x-2-2-2-2-x-2-2-2-2-2-2-2-x-2-2-2-2-x-2-2-x-x---|
a---9--9--9--9-3-3-3-x-3-3-3-3-x-3-3-3-3-3-3-3-x-3-3-3-3-x-3-3-x-x---|
E--------------------------------------------------------------------|


pre chorus:

e--3-3-3-x-3-3-3-3-x-3-3-3-3-----------------------------|
b--3-3-3-x-3-3-3-3-x-3-3-3-3-7-7-7-x-7-7-7-7-x-7-7-7-7---|
g--0-0-0-x-0-0-0-0-x-0-0-0-0-7-7-7-x-7-7-7-7-x-7-7-7-7---|
d--2-2-2-x-2-2-2-2-x-2-2-2-2-7-7-7-x-7-7-7-7-x-7-7-7-7---|
a----------------------------5-5-5-x-5-5-5-5-x-5-5-5-5---|
E--------------------------------------------------------|

e--3-3-3-x-3-3-3-3-x-3-3-3-3--3-3-3-x-3-3-x------------------------|
b--3-3-3-x-3-3-3-3-x-3-3-3-3--3-3-3-x-3-3-x--7----x------7-----x---|
g--0-0-0-x-0-0-0-0-x-0-0-0-0--0-0-0-x-0-0-x--7----x------7-----x---|
d--2-2-2-x-2-2-2-2-x-2-2-2-2--2-2-2-x-2-2-x--7----x------7-----x---| x2
a--3-3-3-x-3-3-3-3-x-3-3-3-3--3-3-3-x-3-3-x--5----x------5-----x---|
E------------------------------------------------------------------|
                                          =========================
on the 2nd time dont play the underlined bit!

chorus:

e-3-3-3-3-3-3-3-3-3-------------------2-2-2-2-2-2-2-2-2-3-3-3-3-3-3-3-3-3-|
b-3-3-3-3-3-3-3-3-3-7-7-7-7-7-7-7-7-7-3-3-3-3-3-3-3-3-3-3-3-3-3-3-3-3-3-3-|
g-0-0-0-0-0-0-0-0-0-7-7-7-7-7-7-7-7-7-2-2-2-2-2-2-2-2-2-0-0-0-0-0-0-0-0-0-|
d-0-0-0-0-0-0-0-0-0-7-7-7-7-7-7-7-7-7-4-4-4-4-4-4-4-4-4-2-2-2-2-2-2-2-2-2-|x2
a-2-2-2-2-2-2-2-2-2-5-5-5-5-5-5-5-5-5-2-2-2-2-2-2-2-2-2-3-3-3-3-3-3-3-3-3-|
E-3-3-3-3-3-3-3-3-3-------------------------------------------------------|

then the end bit of the chorus.

e--------------------------------------3-------------------------------3-~~-|
b---------------3----------------------3---3------------------------3--3-~~-|
g------0-----------0---------------0------------0----------0-----------0-~~-|
d----2-------0--------0--------2-------------------2-----2------0------2-~~-|
a--0------2----------------3---------------------------0------2--------3-~~-|
E---------------------------------------------------------------------------|

then play this before you play verse 2.

e-10-10-10-x-10-10-10-10-x-10-10-10-10-10-10-10-x-10-10-10-10-x-10-10-10-10-|
b-10-10-10-x-10-10-10-10-x-10-10-10-10-10-10-10-x-10-10-10-10-x-10-10-10-10-|
g--0--0--0-x--0--0--0--0-x--0--0--0--0--0--0--0-x--0--0--0--0-x--0--0--0--0-|
d--9--9--9-x--9--9--9--9-x--9--9--9--9--9--9--9-x--9--9--9--9-x--9--9--9--9-|
a-10-10-10-x-10-10-10-10-x-10-10-10-10-10-10-10-x-10-10-10-10-x-10-10-10-10-|
E---------------------------------------------------------------------------|

verse 2
chorus

bridge:

play the bit at the end of the chorus x2.

chorus x2

outro:

e-------------------------------------------3---|
b--------1-------------3--------------------3---|
g--------0---------------------0---------0------|
d-----2------------0------------------2---------|
a--0----------2------------2-------3------------|
E-----------------------------------------------|

e----------------------------------3-~~~~~~~~---|
b---------1--------------3---------3-~~~~~~~~---|
g---------0-------------------0----0-~~~~~~~~---|
d------2-------------0-------------2-~~~~~~~~---|
a---0----------2-------------------3-~~~~~~~~---|
E-----------------------------------------------|


12.WITHOUT YOU!


intro:

e----------------------------------------------------------------|
b----------------------------------------------------------------|
g--------0------------0------------0-----0---------0-------------|
d-----5-----3------5-----3------------------7---------9-----10---| x4
a--3------------5------------8--8-----8---------8--------8-------|
E----------------------------------------------------------------|

verse 1:

e---------------------------------------------|
b---------------------------------------------|
g--------0--------------0-------------0-------|
d-----5-----5--------7-----7------10-----10---|
a--3--------------5------------8--------------|
E---------------------------------------------|

e-------------------------------------------|
b-------------------------------------------|
g---------0-------------0------------0------|
d-----10-----10------5-----5------7-----7---|
a--8--------------3------------5------------|
E-------------------------------------------|

e---------------------------------------------|
b---------------------------------------------|
g---------0--------------0-------------0------|
d-----10-----10------10-----10------5-----5---|
a--8--------------8--------------3------------|
E---------------------------------------------|

e---------------------------------------------|
b---------------------------------------------|
g--------0-------------0--------------0-------|
d-----7-----7------10-----10------10-----10---|
a--5------------8--------------8--------------|
E---------------------------------------------|

e--------------------------------------------------------|
b--------------------------------------------------------|
g--------0-----------0------------0--------------0-------|
d-----5-----5-----7-----7-----10-----10------10-----10---|
a--3-----------5-----------8--------------8--------------|
E--------------------------------------------------------|

pre chorus:

e--------------------------------------------------------------|
b--0-0-0-0-0-0-0-0-0-------------------------------------------|
g--2-2-2-2-2-2-2-2-2-5-5-5-5-5-5-5-5-5-0-0-0-0-0-0-0-0---0-0---|
d--2-2-2-2-2-2-2-2-2-5-5-5-5-5-5-5-5-5-3-3-3-3-3-3-3-3-/-5-5---|
a--0-0-0-0-0-0-0-0-0-5-5-5-5-5-5-5-5-5-3-3-3-3-3-3-3-3-/-5-5---|
E--------------------3-3-3-3-3-3-3-3-3-1-1-1-1-1-1-1-1-/-3-3---|


e--------------------------------------------------------|
b--0-0-0-0-0-0-0-0-0-------------------------------------|
g--2-2-2-2-2-2-2-2-2-0-0-0-0-0-0-0-0-0---5-5-5-5-5-5-5---|
d--2-2-2-2-2-2-2-2-2-3-3-3-3-3-3-3-3-3---5-5-5-5-5-5-5---|
a--0-0-0-0-0-0-0-0-0-3-3-3-3-3-3-3-3-3---5-5-5-5-5-5-5---|
E--------------------1-1-1-1-1-1-1-1-1---3-3-3-3-3-3-3---|

chorus:

e------------------------------------------------|
b------------------------------------------------|
g--5-5-5-5-5-5-5-5-5-5-5-0-0-0-0-0-0-0-0-0-0-0---|
d--5-5-5-5-5-5-5-5-5-5-5-3-3-3-3-3-3-3-3-3-3-3---| x3
a--3-3-3-3-3-5-5-5-5-5-5-3-3-3-3-3-3-3-3-3-3-3---|
E------------3-3-3-3-3-3-1-1-1-1-1-1-1-1-1-1-1---|

then were it says without you 3 times you play this.

e--0-0-0-0-0-3-3-3-3-3-3-------------------------|
b--1-1-1-1-1-3-3-3-3-3-3-------------------------|
g--0-0-0-0-0-0-0-0-0-0-0-0-0-0-0-0-0-0-0-0-0-0---|
d--2-2-2-2-2-0-0-0-0-0-0-3-3-3-3-3-3-3-3-3-3-3---|
a--0-0-0-0-0-2-2-2-2-2-2-3-3-3-3-3-3-3-3-3-3-3---|
E------------3-3-3-3-3-3-1-1-1-1-1-1-1-1-1-1-1---|

verse 2
chorus
verse 3

outro:

i'm not so sure because the outro is quite long but i think the
very last chord is this.

e--------------|
b--------------|
g----0-~~~~~---|
d----3-~~~~~---|
a----3-~~~~~---|
E----1-~~~~~---|


13.LOSER KID!

intro:

e----------------------------------------------------------------|
b----------------------------------------------------------------|
g----------------------------------------------------------------|
d----------------------------------------------------------------| x2
a--12-12-12-12-12-12-12-12-12-12-12-12-12-12-12-12-12-12-12-12---|
E----------------------------------------------------------------|

verse 1:

e-------------------------------------------------------------|
b-------------------------------------------------------------|
g-------------------------------------------------------------|
d-------------------------------------------------------------|
a-7-7-7-x-7-7-7-7-x-7-7-7-7-x-7-7-7-7-x-4-4-4-4-x-4-4-4-4-x---|
E-5-5-5-x-5-5-5-5-x-5-4-4-4-x-4-4-4-4-x-2-2-2-2-x-2-2-2-2-x---|

e--------------------------|
b--------------------------|
g--------------------------|
d--7-7-7-7-7-7-7-7-7-x-x---|
a--5-5-5-5-5-5-5-5-5-x-x---|
E--------------------------|

pre chorus:

e------------------------------------------------------------------------|
b------------------------------------------------------------------------|
g------------------------------------------------------------------------|
d--7-7-7-7-7-7-7-7-x-x-7-7-7-7-7-7-7-7-x-x-11-11-11-11-11-11-11-11-x-x---|
a--5-5-5-5-5-5-5-5-x-x-5-5-5-5-5-5-5-5-x-x--9--9--9--9--9--9--9--9-x-x---|
E------------------------------------------------------------------------|

e------------------------|
b------------------------|
g------------------------|
d--9-9-9-9-9-9-9-9-x-x---|
a--7-7-7-7-7-7-7-7-x-x---|
E------------------------|

chorus:

e---------------------------------------------|
b---------------------------------------------|
g--6-6-6-x-6-6-6-6-6-6--6-6-6-x-6-6-6-6-6-6---|
d--7-7-7-x-7-7-7-7-7-7--7-7-7-x-7-7-7-7-7-7---|
a--7-7-7-x-7-7-7-7-7-7--7-7-7-x-7-7-7-7-7-7---|
E--5-5-5-x-5-5-5-5-5-5--4-4-4-x-4-4-4-4-4-4---|

e---------------------------------------------|
b-----------------------7-7-7-x-7-7-7-7-7-7---|
g--2-2-2-x-2-2-2-2-2-2--7-7-7-x-7-7-7-7-7-7---|
d--4-4-4-x-4-4-4-4-4-4--7-7-7-x-7-7-7-7-7-7---| x2
a--4-4-4-x-4-4-4-4-4-4--5-5-5-x-5-5-5-5-5-5---|
E--2-2-2-x-2-2-2-2-2-2------------------------|

after the chorus play this before you go into the 2nd verse.

e--------------------------------------------|
b--------------------------------------------|
g--------------------------------------------|
d--------------------------------------------|
a--7-7-7-x-7-7-7-7-x-7-7-7-7-x-7-7-7-7-x-7---|
E--5-5-5-x-5-5-5-5-x-5-5-5-5-x-5-5-5-5-x-5---|

verse 2
chorus

bridge:

e--2-2-2-2-2-2-2-2-2-2-2--0-0-0-0-0-0-0-0-0-0-0---|
b--2-2-2-2-2-2-2-2-2-2-2--0-0-0-0-0-0-0-0-0-0-0---|
g--2-2-2-2-2-2-2-2-2-2-2--2-2-2-2-2-2-2-2-2-2-2---|
d--4-4-4-4-4-4-4-4-4-4-4--2-2-2-2-2-2-2-2-2-2-2---|
a--4-4-4-4-4-4-4-4-4-4-4--2-2-2-2-2-2-2-2-2-2-2---|
E--2-2-2-2-2-2-2-2-2-2-2--0-0-0-0-0-0-0-0-0-0-0---|

e--5-5-5-5-5-5-5-5-5-5-5-5-5-5-5-5-5--7-7-7-7-7-7---|
b--5-5-5-5-5-5-5-5-5-5-5-5-5-5-5-5-5--7-7-7-7-7-7---|
g--7-7-7-7-7-7-7-7-7-7-7-7-7-7-7-7-7--9-9-9-9-9-9---|
d--7-7-7-7-7-7-7-7-7-7-7-7-7-7-7-7-7--9-9-9-9-9-9---| x2
a--5-5-5-5-5-5-5-5-5-5-5-5-5-5-5-5-5--7-7-7-7-7-7---|
E---------------------------------------------------|

e------------------------------------------------|
b--------------------------------------7--7-~~---|
g--------2--2-~~--------1--1-~~------7----7-~~---|
d------4----4-~~------2----2-~~----7------7-~~---|
a----4------4-~~----2------2-~~--5--------5-~~---|
E--2--------2-~~--0--------0-~~------------------|

e------------------------|
b--7-7-7-x-7-7-7-7-7-7---|
g--7-7-7-x-7-7-7-7-7-7---|
d--7-7-7-x-7-7-7-7-7-7---|
a--5-5-5-x-5-5-5-5-5-5---|
E------------------------|

solo bit after the bridge

e-------19-----17--------------------19---|
b--17----------------17-------17----------|
g-----------------------------------------|
d-----------------------------------------|
a-----------------------------------------|
E-----------------------------------------|

e--17----------------19---17---|
b------15--------17------------|
g------------------------------|
d------------------------------|
a------------------------------|
E------------------------------|

e------------19----17-------|
b--17----17------------15---|
g---------------------------|
d---------------------------|
a---------------------------|
E---------------------------|

outro:

repeat the chorus to fade.

if you dont understand anything or if youve got any questions email me on

busted_3@hotmail.co.uk
comments
print report bad tab
2 comments total.
0 reply
Your Mom Is Emo wrote on April 4 2005, 12:00 am

......



....


hahahahahahhahaa

-1 reply
sundancewar wrote on December 2 2006, 03:02 pm

its crap lol

I want to post or [tab]
guest
You may want to rate the tab now too:
select rating
Please do not post tabs as comments. Select "correction" instead!