Oops, an error
Loading. Please wait.

Wooden Song Tab

3,254 views 12 this week
1 commentread comment
1 2 3 4 5
excellent!
x 1
add to favorites launch autoscroll
font size
0
reset
Autoscroll
+/-
esc
set tempo
stop
Contributor
Difficulty
intermediate
WARNING: You are trying to view
                                    content from Ultimate-Guitar.com
                                    in an unauthorized application,
                                    which is prohibited.

                                    Please use an official Ultimate
                                    Guitar Tabs application for iPhone,
                                    iPad or Android to access legitimate
                                    chords, guitar, bass, and drum tabs
                                    from Ultimate-Guitar.com database.

                                    Type "ultimate guitar tabs" in Apple
                                    App Store's or Android Market's
                                    search to find the application.
-------------------------------------------------------------------------------
                             THE WOODEN SONG - Butthole Surfers
-------------------------------------------------------------------------------
Tabbed by: Tyler J
Email: full_metal_orange AT hotmail DOT com

Tuning: Standard


Fantastic song and I present here the much needed correct format for this song including 
hard and difficult solo.

     Q.     S. E.  S.    Q    Q    Q       Q.     S. E.  S.    Q.     E  Q
E||--0------0--0---0--|--2----0----2----|--3------3--3---0--|--0------0--0----|
B||--1------1--1---1--|--3----3----3----|--3------3--3---0--|--1------1--1----|
G||--2---------2---2--|--2----2----2----|--0------0--0------|--0------0--0----|
D||--2-------------2--|--0--------------|--0---------0------|--2---------2----|
A||--0----------------|-----------------|--2----------------|--3--------------|
E||-------------------|-----------------|--3----------------|-----------------|


  Q.     S. E.  S.    Q    Q    Q       Q.     S. E.  S.    Q    Q    Q
--0------0--0---0--|--2----0----2----|--3------3--3---0--|--2----0----2----|
--1------1--1---1--|--3----3----3----|--3------3--3---0--|--3----3----3----|
--2---------2---2--|--2----2----2----|--0------0--0------|--2----2----2----|
--2-------------2--|--0--------------|--0---------0------|--0--------------|
--0----------------|-----------------|--2----------------|-----------------|
-------------------|-----------------|--3----------------|-----------------|


  Q.     S. E.  S.    Q.     S. E.  S.    Q    E.  S E.  S    Q    Q    Q
--1------1--1---1--|--0------0--0---0--|--0----0-----0---0-|--0----0----0----|
--1------1--1---1--|--1------1--1---1--|--1----1---3-1---1-|--1----1----1----|
--2------2--2---2--|--0------0--0---0--|--2----2---2-2---2-|--2----2----2----|
--3------3--3---3--|--2------2--2---2--|--2----2-----2-----|--2----2----2----|
--3----------------|--3----------------|--0----------------|--0--------------|
-------------------|-------------------|-------------------|-----------------|


  Q.     S. E.  S.    Q    Q    Q       Q.     S. E.  S.    Q.     S. E.  S.
--3------3--3---3--|--3----3----3----|--0------0--0---0--|--3------3--3---0--|
--3------3--3---3--|--3----3----3----|--1------1--1---1--|--3------3--3---0--|
--0------0--0---0--|--0----0----0----|--0------0--0---0--|--0------0--0------|
--0---------0---0--|--0---------0----|--2------2--2---2--|--0---------0------|
--2----------------|--2--------------|--3----------------|--2----------------|
--3----------------|--3--------------|-------------------|--3----------------|


  Q    Q    Q       Q.     S. E.  S.    Q    Q    E.  S    Q    E.  S E.  S
--2----0----2----|--1------1--1---1--|--0----0----0---0-|--0----0-----0---0-|
--3----3----3----|--1------1--1---1--|--1----1----1---0-|--1----1---3-1---1-|
--2----2----2----|--2------2--2---2--|--0----0----0-----|--2----2---2-2---2-|
--0--------------|--3------3--3---3--|--2----2----2-----|--2----2---2-2-----|
-----------------|--3----------------|--3---------------|--0----------------|
-----------------|-------------------|------------------|-------------------|


  Q    Q    E.  S    Q    E.  S E.  S    Q.     S. E.  S.    Q    Q    Q
--3----3----3---0-|--0----0-----0---0-|--3------3--3---0--|--2----0----2----|
--3----3----3---0-|--1----1---3-1---0-|--3------3--3---0--|--3----3----3----|
--0----0----0-----|--2----2---2-2-----|--0------0--0------|--2----2----2----|
--0---------0-----|--2----2-----2-----|--0---------0------|--0--------------|
--2---------------|--0----------------|--2----------------|-----------------|
--3---------------|-------------------|--3----------------|-----------------|


  Q.     S. E.  S.    Q.     S. E.  S.    Q    E.  S E.  S    Q    Q    Q
--1------1--1---1--|--0------0--0---0--|--0----0-----0---0-|--0----0----0----|
--1------1--1---1--|--1------1--1---1--|--1----1---3-1---1-|--1----1----1----|
--2------2--2---2--|--0------0--0---0--|--2----2---2-2---2-|--2----2----2----|
--3------3--3---3--|--2------2--2---2--|--2----2-----2-----|--2----2----2----|
--3----------------|--3----------------|--0----------------|--0--------------|
-------------------|-------------------|-------------------|-----------------|


  Q.     S. E.  S.    Q    Q    Q       Q.     S. E.  S.    Q.     S. E.  S.
--3------3--3---3--|--3----3----3----|--0------0--0---0--|--3------3--3---0--|
--3------3--3---3--|--3----3----3----|--1------1--1---1--|--3------3--3---0--|
--0------0--0---0--|--0----0----0----|--0------0--0---0--|--0------0--0------|
--0---------0---0--|--0---------0----|--2------2--2---2--|--0---------0------|
--2----------------|--2--------------|--3----------------|--2----------------|
--3----------------|--3--------------|-------------------|--3----------------|


  Q    Q    Q       Q.     S. E.  S.    Q    Q    E.  S    Q    E.  S E.  S
--2----0----2----|--1------1--1---1--|--0----0----0---0-|--0----0-----0---0-|
--3----3----3----|--1------1--1---1--|--1----1----1---0-|--1----1---3-1---1-|
--2----2----2----|--2------2--2---2--|--0----0----0-----|--2----2---2-2---2-|
--0--------------|--3------3--3---3--|--2----2----2-----|--2----2---2-2-----|
-----------------|--3----------------|--3---------------|--0----------------|
-----------------|-------------------|------------------|-------------------|


  Q    Q    E.  S    Q    E.  S E.  S    Q.     S. E.  S.    Q    Q    Q
--3----3----3---0-|--0----0-----0---0-|--0------0--0---0--|--2----0----2----|
--3----3----3---0-|--1----1---3-1---0-|--1------1--1---1--|--3----3----3----|
--0----0----0-----|--2----2---2-2-----|--2---------2---2--|--2----2----2----|
--0---------0-----|--2----2-----2-----|--2-------------2--|--0--------------|
--2---------------|--0----------------|--0----------------|-----------------|
--3---------------|-------------------|-------------------|-----------------|


  Q.     S. E.  S.    Q.     E  Q       Q.     S. E.  S.    Q    Q    Q
--3------3--3---0--|--0------0--0----|--0------0--0---0--|--2----0----2----|
--3------3--3---0--|--1------1--1----|--1------1--1---1--|--3----3----3----|
--0------0--0------|--0------0--0----|--2---------2---2--|--2----2----2----|
--0---------0------|--2---------2----|--2-------------2--|--0--------------|
--2----------------|--3--------------|--0----------------|-----------------|
--3----------------|-----------------|-------------------|-----------------|


  Q.     S. E.  S.    Q    Q    Q       Q.     S. E.  S.    Q.     S. E.  S.
--3------3--3---0--|--2----0----2----|--1------1--1---1--|--0------0--0---0--|
--3------3--3---0--|--3----3----3----|--1------1--1---1--|--1------1--1---1--|
--0------0--0------|--2----2----2----|--2------2--2---2--|--0------0--0---0--|
--0---------0------|--0--------------|--3------3--3---3--|--2------2--2---2--|
--2----------------|-----------------|--3----------------|--3----------------|
--3----------------|-----------------|-------------------|-------------------|


  Q    E.  S E.  S    Q    Q    Q       Q.     S. E.  S.    Q    Q    Q
--0----0-----0---0-|--0----0----0----|--3------3--3---3--|--3----3----3----|
--1----1---3-1---1-|--1----1----1----|--3------3--3---3--|--3----3----3----|
--2----2---2-2---2-|--2----2----2----|--0------0--0---0--|--0----0----0----|
--2----2-----2-----|--2----2----2----|--0---------0---0--|--0---------0----|
--0----------------|--0--------------|--2----------------|--2--------------|
-------------------|-----------------|--3----------------|--3--------------|


  Q.     S. E.  S.    Q.     S. E.  S.    Q    Q    Q       Q.     S. E.  S.
--0------0--0---0--|--3------3--3---0--|--2----0----2----|--1------1--1---1--|
--1------1--1---1--|--3------3--3---0--|--3----3----3----|--1------1--1---1--|
--0------0--0---0--|--0------0--0------|--2----2----2----|--2------2--2---2--|
--2------2--2---2--|--0---------0------|--0--------------|--3------3--3---3--|
--3----------------|--2----------------|-----------------|--3----------------|
-------------------|--3----------------|-----------------|-------------------|


  Q    Q    E.  S    Q    E.  S E.  S    Q    Q    E.  S    Q    E.  S E.  S
--0----0----0---0-|--0----0-----0---0-|--3----3----3---0-|--0----0-----0---0-|
--1----1----1---0-|--1----1---3-1---1-|--3----3----3---0-|--1----1---3-1---0-|
--0----0----0-----|--2----2---2-2---2-|--0----0----0-----|--2----2---2-2-----|
--2----2----2-----|--2----2---2-2-----|--0---------0-----|--2----2-----2-----|
--3---------------|--0----------------|--2---------------|--0----------------|
------------------|-------------------|--3---------------|-------------------|


  Q.     S. E.  S.    Q    Q    Q       Q.     S. E.  S.    Q.     S. E.  S.
--3------3--3---0--|--2----0----2----|--1------1--1---1--|--0------0--0---0--|
--3------3--3---0--|--3----3----3----|--1------1--1---1--|--1------1--1---1--|
--0------0--0------|--2----2----2----|--2------2--2---2--|--0------0--0---0--|
--0---------0------|--0--------------|--3------3--3---3--|--2------2--2---2--|
--2----------------|-----------------|--3----------------|--3----------------|
--3----------------|-----------------|-------------------|-------------------|


  Q    E.  S E.  S    Q    Q    Q       Q.     S. E.  S.    Q    Q    Q
--0----0-----0---0-|--0----0----0----|--3------3--3---3--|--3----3----3----|
--1----1---3-1---1-|--1----1----1----|--3------3--3---3--|--3----3----3----|
--2----2---2-2---2-|--2----2----2----|--0------0--0---0--|--0----0----0----|
--2----2-----2-----|--2----2----2----|--0---------0---0--|--0---------0----|
--0----------------|--0--------------|--2----------------|--2--------------|
-------------------|-----------------|--3----------------|--3--------------|


  Q.     S. E.  S.    Q.     S. E.  S.    Q    Q    Q       Q.     S. E.  S.
--0------0--0---0--|--3------3--3---0--|--2----0----2----|--1------1--1---1--|
--1------1--1---1--|--3------3--3---0--|--3----3----3----|--1------1--1---1--|
--0------0--0---0--|--0------0--0------|--2----2----2----|--2------2--2---2--|
--2------2--2---2--|--0---------0------|--0--------------|--3------3--3---3--|
--3----------------|--2----------------|-----------------|--3----------------|
-------------------|--3----------------|-----------------|-------------------|


  Q    Q    E.  S    Q    E.  S E.  S    Q    Q    E.  S    H.
--0----0----0---0-|--0----0-----0---0-|--3----3----3---0-|--0------------|
--1----1----1---0-|--1----1---3-1---1-|--3----3----3---0-|--1------------|
--0----0----0-----|--2----2---2-2---2-|--0----0----0-----|--2------------|
--2----2----2-----|--2----2---2-2-----|--0---------0-----|--2------------|
--3---------------|--0----------------|--2---------------|--0------------|
------------------|-------------------|--3---------------|---------------|


  Q.     S. E.  S.    Q    Q    Q       Q.     S. E.  S.    Q.     E  Q
--0------0--0---0--|--3----3----3----|--0------0--0---0--|--0------0--0----|
--1------1--1---1--|--3----3----3----|--1------1--1---0--|--1------1--1----|
--2---------2---2--|--0----0----0----|--2------2--2------|--0------0--0----|
--2-------------2--|--0----0----0----|--2---------0------|--2---------2----|
--0----------------|--2--------------|--0----------------|--3--------------|
-------------------|--3--------------|-------------------|-----------------|


  Q.     S. E.  S.    Q    Q    Q       Q.     S. E.  S.    Q.     E  Q
--0------0--0---0--|--3----3----3----|--0------0--0---0--|--0------0--0----|
--1------1--1---1--|--3----3----3----|--1------1--1---0--|--1------1--1----|
--2---------2---2--|--0----0----0----|--2------2--2------|--0------0--0----|
--2-------------2--|--0----0----0----|--2---------0------|--2---------2----|
--0----------------|--2--------------|--0----------------|--3--------------|
-------------------|--3--------------|-------------------|-----------------|


  Q.     S. E.  S.    Q    Q    Q       Q.     S. E.  S.    Q.     E  Q
--0------0--0---0--|--2----2----2----|--0------0--0---0--|--0------0--0----|
--0------0--0---0--|--3----3----3----|--1------1--1---0--|--1------1--1----|
-------------------|--2----2----2----|--0------0--0------|--2------2--2----|
--2-------------2--|--0----0----0----|--2---------2------|--2---------2----|
--2----------------|-----------------|--3----------------|--0--------------|
--0----------------|-----------------|-------------------|-----------------|


  Q.     S. E.  S.    Q    Q    Q       Q.     S. E.  S.    Q.     E  Q
--0------0--0---0--|--3----3----3----|--0------0--0---0--|--0------0--0----|
--1------1--1---1--|--3----3----3----|--1------1--1---0--|--1------1--1----|
--2---------2---2--|--0----0----0----|--2------2--2------|--0------0--0----|
--2-------------2--|--0----0----0----|--2---------0------|--2---------2----|
--0----------------|--2--------------|--0----------------|--3--------------|
-------------------|--3--------------|-------------------|-----------------|


  Q.     S. E.  S.    Q    Q    Q       Q.     S. E.  S.    Q.     E  Q
--0------0--0---0--|--3----3----3----|--0------0--0---0--|--0------0--0----|
--1------1--1---1--|--3----3----3----|--1------1--1---0--|--1------1--1----|
--2---------2---2--|--0----0----0----|--2------2--2------|--0------0--0----|
--2-------------2--|--0----0----0----|--2---------0------|--2---------2----|
--0----------------|--2--------------|--0----------------|--3--------------|
-------------------|--3--------------|-------------------|-----------------|


  Q.     S. E.  S.    Q    Q    Q       Q.     S. E.  S.    Q.     E  Q
--0------0--0---0--|--2----2----2----|--0------0--0---0--|--0------0--0----|
--0------0--0---0--|--3----3----3----|--1------1--1---0--|--1------1--1----|
-------------------|--2----2----2----|--0------0--0------|--2------2--2----|
--2-------------2--|--0----0----0----|--2---------2------|--2---------2----|
--2----------------|-----------------|--3----------------|--0--------------|
--0----------------|-----------------|-------------------|-----------------|


  Q.     S. E.  S.    Q    Q    Q       Q.     S. E.  S.    Q.     E  Q
--0------0--0---0--|--2----2----2----|--0------0--0---0--|--0------0--0----|
--0------0--0---0--|--3----3----3----|--1------1--1---0--|--1------1--1----|
-------------------|--2----2----2----|--0------0--0------|--2------2--2----|
--2-------------2--|--0----0----0----|--2---------2------|--2---------2----|
--2----------------|-----------------|--3----------------|--0--------------|
--0----------------|-----------------|-------------------|-----------------|


  Q.     S. E.  S.    Q    Q    Q       Q    Q    Q       Q    Q    Q
--0------0--0---0--|--2----0----2----|--3--------------|--2----0----2----|
--1------1--1---1--|--3----3----3----|--3----3---------|--3----3----3----|
--2---------2---2--|--2----2----2----|--0---------0----|--2----2----2----|
--2-------------2--|--0--------------|--0--------------|--0--------------|
--0----------------|-----------------|--2--------------|-----------------|
-------------------|-----------------|--3--------------|-----------------|


  Q.     S. E.  S.    Q    Q    Q       Q.     S. E.  S.    Q.     S. E.  S.
--3------3--3---0--|--2----0----2----|--1------1--1---1--|--0------0--0---0--|
--3------3--3---0--|--3----3----3----|--1------1--1---1--|--1------1--1---1--|
--0------0--0------|--2----2----2----|--2------2--2---2--|--0------0--0---0--|
--0---------0------|--0--------------|--3------3--3---3--|--2------2--2---2--|
--2----------------|-----------------|--3----------------|--3----------------|
--3----------------|-----------------|-------------------|-------------------|


  Q    E.  S E.  S    Q    Q    Q       Q.     S. E.  S.    Q    Q    Q
--0----0-----0---0-|--0----0----0----|--3------3--3---3--|--3----3----3----|
--1----1---3-1---1-|--1----1----1----|--3------3--3---3--|--3----3----3----|
--2----2---2-2---2-|--2----2----2----|--0------0--0---0--|--0----0----0----|
--2----2-----2-----|--2----2----2----|--0---------0---0--|--0---------0----|
--0----------------|--0--------------|--2----------------|--2--------------|
-------------------|-----------------|--3----------------|--3--------------|


  Q.     S. E.  S.    Q.     S. E.  S.    Q    Q    Q       Q.     S. E.  S.
--0------0--0---0--|--3------3--3---0--|--2----0----2----|--1------1--1---1--|
--1------1--1---1--|--3------3--3---0--|--3----3----3----|--1------1--1---1--|
--0------0--0---0--|--0------0--0------|--2----2----2----|--2------2--2---2--|
--2------2--2---2--|--0---------0------|--0--------------|--3------3--3---3--|
--3----------------|--2----------------|-----------------|--3----------------|
-------------------|--3----------------|-----------------|-------------------|


  Q    Q    E.  S    Q    E.  S E.  S    Q    Q    E.  S    Q    E.  S E.  S
--0----0----0---0-|--0----0-----0---0-|--3----3----3---0-|--0----0-----0---0-|
--1----1----1---0-|--1----1---3-1---1-|--3----3----3---0-|--1----1---3-1---0-|
--0----0----0-----|--2----2---2-2---2-|--0----0----0-----|--2----2---2-2-----|
--2----2----2-----|--2----2---2-2-----|--0---------0-----|--2----2-----2-----|
--3---------------|--0----------------|--2---------------|--0----------------|
------------------|-------------------|--3---------------|-------------------|


  Q.     S. E.  S.    Q    Q    Q       Q.     S. E.  S.    Q.     S. E.  S.
--3------3--3---0--|--2----0----2----|--1------1--1---1--|--0------0--0---0--|
--3------3--3---0--|--3----3----3----|--1------1--1---1--|--1------1--1---1--|
--0------0--0------|--2----2----2----|--2------2--2---2--|--0------0--0---0--|
--0---------0------|--0--------------|--3------3--3---3--|--2------2--2---2--|
--2----------------|-----------------|--3----------------|--3----------------|
--3----------------|-----------------|-------------------|-------------------|


  Q    E.  S E.  S    Q    Q    Q       Q.     S. E.  S.    Q    Q    Q
--0----0-----0---0-|--0----0----0----|--3------3--3---3--|--3----3----3----|
--1----1---3-1---1-|--1----1----1----|--3------3--3---3--|--3----3----3----|
--2----2---2-2---2-|--2----2----2----|--0------0--0---0--|--0----0----0----|
--2----2-----2-----|--2----2----2----|--0---------0---0--|--0---------0----|
--0----------------|--0--------------|--2----------------|--2--------------|
-------------------|-----------------|--3----------------|--3--------------|


  Q.     S. E.  S.    Q.     S. E.  S.    Q    Q    Q       Q.     S. E.  S.
--0------0--0---0--|--3------3--3---0--|--2----0----2----|--1------1--1---1--|
--1------1--1---1--|--3------3--3---0--|--3----3----3----|--1------1--1---1--|
--0------0--0---0--|--0------0--0------|--2----2----2----|--2------2--2---2--|
--2------2--2---2--|--0---------0------|--0--------------|--3------3--3---3--|
--3----------------|--2----------------|-----------------|--3----------------|
-------------------|--3----------------|-----------------|-------------------|


  Q    Q    E.  S    Q    E.  S E.  S    Q    Q    E.  S    Q    E.  S E.  S
--0----0----0---0-|--0----0-----0---0-|--3----3----3---0-|--0----0-----0---0-|
--1----1----1---0-|--1----1---3-1---1-|--3----3----3---0-|--1----1---3-1---0-|
--0----0----0-----|--2----2---2-2---2-|--0----0----0-----|--2----2---2-2-----|
--2----2----2-----|--2----2---2-2-----|--0---------0-----|--2----2-----2-----|
--3---------------|--0----------------|--2---------------|--0----------------|
------------------|-------------------|--3---------------|-------------------|


  Q.     S. E.  S.    Q    Q    Q       Q.     S. E.  S.    Q.     E  Q
--0------0--0---0--|--3----3----3----|--0------0--0---0--|--0------0--0----|
--1------1--1---1--|--3----3----3----|--1------1--1---0--|--1------1--1----|
--2---------2---2--|--0----0----0----|--2------2--2------|--0------0--0----|
--2-------------2--|--0----0----0----|--2---------0------|--2---------2----|
--0----------------|--2--------------|--0----------------|--3--------------|
-------------------|--3--------------|-------------------|-----------------|


  Q.     S. E.  S.    Q    Q    Q       Q.     S. E.  S.    Q.     E  Q
--0------0--0---0--|--3----3----3----|--0------0--0---0--|--0------0--0----|
--1------1--1---1--|--3----3----3----|--1------1--1---0--|--1------1--1----|
--2---------2---2--|--0----0----0----|--2------2--2------|--0------0--0----|
--2-------------2--|--0----0----0----|--2---------0------|--2---------2----|
--0----------------|--2--------------|--0----------------|--3--------------|
-------------------|--3--------------|-------------------|-----------------|


  Q.     S. E.  S.    Q    Q    Q       Q.     S. E.  S.    Q.     E  Q
--0------0--0---0--|--2----2----2----|--0------0--0---0--|--0------0--0----|
--0------0--0---0--|--3----3----3----|--1------1--1---0--|--1------1--1----|
-------------------|--2----2----2----|--0------0--0------|--2------2--2----|
--2-------------2--|--0----0----0----|--2---------2------|--2---------2----|
--2----------------|-----------------|--3----------------|--0--------------|
--0----------------|-----------------|-------------------|-----------------|


  Q.     S. E.  S.    Q    Q    Q       Q.     S. E.  S.    Q.     E  Q
--0------0--0---0--|--3----3----3----|--0------0--0---0--|--0------0--0----|
--1------1--1---1--|--3----3----3----|--1------1--1---0--|--1------1--1----|
--2---------2---2--|--0----0----0----|--2------2--2------|--0------0--0----|
--2-------------2--|--0----0----0----|--2---------0------|--2---------2----|
--0----------------|--2--------------|--0----------------|--3--------------|
-------------------|--3--------------|-------------------|-----------------|


  Q.     S. E.  S.    Q    Q    Q       Q.     S. E.  S.    Q.     E  Q
--0------0--0---0--|--3----3----3----|--0------0--0---0--|--0------0--0----|
--1------1--1---1--|--3----3----3----|--1------1--1---0--|--1------1--1----|
--2---------2---2--|--0----0----0----|--2------2--2------|--0------0--0----|
--2-------------2--|--0----0----0----|--2---------0------|--2---------2----|
--0----------------|--2--------------|--0----------------|--3--------------|
-------------------|--3--------------|-------------------|-----------------|


  Q.     S. E.  S.    Q    Q    Q       Q.     S. E.  S.    Q.     E  Q
--0------0--0---0--|--2----2----2----|--0------0--0---0--|--0------0--0----|
--0------0--0---0--|--3----3----3----|--1------1--1---0--|--1------1--1----|
-------------------|--2----2----2----|--0------0--0------|--2------2--2----|
--2-------------2--|--0----0----0----|--2---------2------|--2---------2----|
--2----------------|-----------------|--3----------------|--0--------------|
--0----------------|-----------------|-------------------|-----------------|


  Q.     S. E.  S.    Q    Q    Q       Q.     S. E.  S.    Q.     E  Q
--0------0--0---0--|--2----2----2----|--0------0--0---0--|--0------0--0----|
--0------0--0---0--|--3----3----3----|--1------1--1---0--|--1------1--1----|
-------------------|--2----2----2----|--0------0--0------|--2------2--2----|
--2-------------2--|--0----0----0----|--2---------2------|--2---------2----|
--2----------------|-----------------|--3----------------|--0--------------|
--0----------------|-----------------|-------------------|-----------------|


  Q.     S. E.  S.    Q    Q    Q       Q.     S. E.  S.    Q    Q    Q
--0------0--0---0--|--2----0----2----|--3------3--3---3--|--0----0----0----|
--1------1--1---1--|--3----3----3----|--3------3--3---3--|--1----1----1----|
--2---------2---2--|--2----2----2----|--0------0--0---0--|--0----0----0----|
--2-------------2--|--0--------------|--0---------0---0--|--2----2----2----|
--0----------------|-----------------|--2---------2---2--|--3----3----3----|
-------------------|-----------------|--3----------------|-----------------|


  Q.     S. E.  S.    Q    Q    Q       Q    Q    Q       H.
--0------0--0---0--|--2----0----2----|--3--------------|--L------------||
--1------1--1---0--|--3----3----3----|--3----3---------|--L------------||
--2------2--2------|--2----2----2----|--0---------0----|--L------------||
--2---------0------|--0----0----0----|--0--------------|--L------------||
--0----------------|-----------------|--2--------------|--L------------||
-------------------|-----------------|--3--------------|--L------------||


                                SOLO

E||-------|-------|-------|-------|-------|-------|-------|-------|-------|
B||-------|-------|-------|-------|-------|-------|-------|-------|-------|
G||-------|-------|-------|-------|-------|-------|-------|-------|-------|
D||-------|-------|-------|-------|-------|-------|-------|-------|-------|
A||-------|-------|-------|-------|-------|-------|-------|-------|-------|
E||-------|-------|-------|-------|-------|-------|-------|-------|-------|


-------|-------|-------|-------|-------|-------|-------|-------|-------|-------|
-------|-------|-------|-------|-------|-------|-------|-------|-------|-------|
-------|-------|-------|-------|-------|-------|-------|-------|-------|-------|
-------|-------|-------|-------|-------|-------|-------|-------|-------|-------|
-------|-------|-------|-------|-------|-------|-------|-------|-------|-------|
-------|-------|-------|-------|-------|-------|-------|-------|-------|-------|


-------|-------|-------|-------|-------|-------|-------|-------|-------|-------|
-------|-------|-------|-------|-------|-------|-------|-------|-------|-------|
-------|-------|-------|-------|-------|-------|-------|-------|-------|-------|
-------|-------|-------|-------|-------|-------|-------|-------|-------|-------|
-------|-------|-------|-------|-------|-------|-------|-------|-------|-------|
-------|-------|-------|-------|-------|-------|-------|-------|-------|-------|


-------|-------|-------|-------|-------|-------|-------|-------|-------|-------|
-------|-------|-------|-------|-------|-------|-------|-------|-------|-------|
-------|-------|-------|-------|-------|-------|-------|-------|-------|-------|
-------|-------|-------|-------|-------|-------|-------|-------|-------|-------|
-------|-------|-------|-------|-------|-------|-------|-------|-------|-------|
-------|-------|-------|-------|-------|-------|-------|-------|-------|-------|


                                          H.              H.
-------|-------|-------|-------|-------|---------------|---------------|
-------|-------|-------|-------|-------|---------------|---------------|
-------|-------|-------|-------|-------|---------------|---------------|
-------|-------|-------|-------|-------|--5------------|--4------------|
-------|-------|-------|-------|-------|---------------|---------------|
-------|-------|-------|-------|-------|---------------|---------------|


  H.              H.              H.              H.              H.
---------------|---------------|---------------|---------------|---------------|
---------------|---------------|---------------|---------------|---------------|
---------------|---------------|---------------|---------------|---------------|
--3------------|--2------------|--2------------|---------------|---------------|
---------------|---------------|---------------|--3------------|---------------|
---------------|---------------|---------------|---------------|--3------------|


  H.              H.              H.              H.              H.
---------------|---------------|---------------|---------------|---------------|
---------------|---------------|---------------|---------------|---------------|
---------------|---------------|---------------|---------------|---------------|
---------------|---------------|--5------------|--4------------|--3------------|
---------------|--3------------|---------------|---------------|---------------|
--L------------|---------------|---------------|---------------|---------------|


  H.              H.              H.              H.
---------------|---------------|---------------|---------------|
---------------|---------------|---------------|---------------|
---------------|---------------|---------------|---------------|
--2------------|---------------|---------------|---------------|
---------------|--3------------|--2------------|--0------------|
---------------|---------------|---------------|---------------|


   clean
   H.              H.                Q    Q    Q        H.
----------------|----------------|------------------|----------------|
----------------|----------------|------------------|----------------|
----------------|--7S------------|--10----9----7----|----------------|
----------------|----------------|------------------|--10------------|
--10------------|----------------|------------------|----------------|
----------------|----------------|------------------|----------------|


                           |--3--|
   Q     Q    Q       Q    E  E  E   Q        H.
-------------------|----------------------|----------------|---------------|
-------------------|----------------------|----------------|---------------|
--12----10----9----|--9----7--9--7--------|----------------|---------------|
-------------------|----------------10----|----------------|---------------|
-------------------|----------------------|--10------------|---------------|
-------------------|----------------------|----------------|---------------|


---------------|---------------|---------------|---------------|---------------|
---------------|---------------|---------------|---------------|---------------|
---------------|---------------|---------------|---------------|---------------|
---------------|---------------|---------------|---------------|---------------|
---------------|---------------|---------------|---------------|---------------|
---------------|---------------|---------------|---------------|---------------|


                                                  E  S S E  S S E  S S
---------------|---------------|---------------|-----------------------|
---------------|---------------|---------------|-----------------------|
---------------|---------------|---------------|-----------------------|
---------------|---------------|---------------|-----------------------|
---------------|---------------|---------------|-------3-5--3-5-7--5-7-|
---------------|---------------|---------------|--5--5-----------------|


  E  S S E  S S E  S S    E.    S E  E  Q         Q      Q      Q
-----------------------|---------------------|-----------------------|
-----------------------|---------------------|-----------------------|
----------------5----5-|--7br---5----5--7----|--5g7----5g7----5g7----|
--5----5-7--5-7----7---|----------7----------|-----------------------|
-----7-----------------|---------------------|-----------------------|
-----------------------|---------------------|-----------------------|


  E  S S E  S S E  S S    E  S S E  S S E  S S    E.  S E  E    Q
-----------------------|-----------------------|---------------------|
-----------------------|-----------------------|---------------------|
-----------------------|----------------5----5-|--7---5----5--5g7----|
-----------------------|--5----5-7--5-7----7---|--------7------------|
-------3-5--3-5-7--5-7-|-----7-----------------|---------------------|
--5--5-----------------|-----------------------|---------------------|


                           |---3---|   |---3---|   |---3---|
    Q      Q      Q        E   E   E   E   E   E   E   E   E
-----------------------|--------------------------------------|
-----------------------|--------------13--15--15--13--15--15--|
--5g7----5g7----7g9----|--12--13--14--------------------------|
-----------------------|--------------------------------------|
-----------------------|--------------------------------------|
-----------------------|--------------------------------------|


           |---3---|   |---3---|      |---3---|   |---3---|   |---3---|
   Q       E   E   E   E   E   E      E   E   E   E   E   E   E   E   E
----------------------------------|--------------------------------------|
--13------13--15--15--13--15--15--|--15--13------------------------------|
--14br----------------------------|----------14--12----------------------|
----------------------------------|------------------14--13--12--10--12--|
----------------------------------|--------------------------------------|
----------------------------------|--------------------------------------|


   S  S  E   E   S  S  E   E     E  S S E  S S E  S S    E  S S E  S S E  S S
------------------------------|-----------------------|-----------------------|
------------------------------|-----------------------|-----------------------|
------------------------------|-----------------------|----------------5----5-|
--12-10-12--10------------10--|-----------------------|--5----5-7--5-7----7---|
----------------12-10-12------|-------3-5--3-5-7--5-7-|-----7-----------------|
------------------------------|--5--5-----------------|-----------------------|


  E.    S E  E    Q         Q      Q      Q       E  S S E  S S E  S S
-----------------------|-----------------------|-----------------------|
-----------------------|-----------------------|-----------------------|
--7br---5----5--5g7----|--5g7----5g7----5g7----|-----------------------|
----------7------------|-----------------------|-----------------------|
-----------------------|-----------------------|-------3-5--3-5-7--5-7-|
-----------------------|-----------------------|--5--5-----------------|


  E  S S E  S S E  S S    E.    S E  E    Q         Q      Q      Q
-----------------------|-----------------------|-----------------------|
-----------------------|-----------------------|-----------------------|
----------------5----5-|--7br---5----5--5g7----|--5g7----5g7----5g7----|
--5----5-7--5-7----7---|----------7------------|-----------------------|
-----7-----------------|-----------------------|-----------------------|
-----------------------|-----------------------|-----------------------|


   |---3---|   |---3---|   |---3---|
   E   E   E   E   E   E   E   E   E      Q       H
--------------------------------------|---------------------|
--------------13--15--15--13--15--15--|--13------13~--------|
--12--13--14--------------------------|--14br----14~--------|
--------------------------------------|---------------------|
--------------------------------------|---------------------|
--------------------------------------|---------------------|


             |---3---|   |---3---|      |---3---|   |---3---|   |---3---|
   E.     S  E   E   E   E   E   E      E   E   E   E   E   E   E   E   E
------------------------------------|--------------------------------------|
--15br---13-15--15--15--13--15--15--|--13--15--15--13--15--15--13--15--15--|
------------------------------------|--------------------------------------|
------------------------------------|--------------------------------------|
------------------------------------|--------------------------------------|
------------------------------------|--------------------------------------|


   S  S  S  S  S  S  S  S  S  S  S  S     S  S  S  S  S  S  S  S  Q
--------------------------------------|----------------------------------|
--13-15-15-15-13-15-15-15-13-15-15-15-|--13-15-15-15-13-15-15-15-15br----|
--------------------------------------|----------------------------------|
--------------------------------------|----------------------------------|
--------------------------------------|----------------------------------|
--------------------------------------|----------------------------------|


            |---3---|      |---3---|
  H         E   E   E      E   E   E   S  S  S  S  E   E     H.
-----------------------|----------------------------------|---------------|
--L--------13--15--15--|--15--13------13------------------|---------------|
-----------------------|----------14----------------------|---------------|
-----------------------|-----------------14-12-10-12--10--|---------------|
-----------------------|----------------------------------|--0------------|
-----------------------|----------------------------------|---------------|


  H.              H.              Q    Q    Q       H.
---------------|---------------|-----------------|---------------|
---------------|---------------|-----------------|---------------|
---------------|---------------|-----------------|---------------|
--0------------|---------------|-----------------|---------------|
---------------|---------------|-----------------|---------------|
---------------|--3------------|--2----0----2----|--3------------|


---------------|---------------|---------------|---------------|---------------|
---------------|---------------|---------------|---------------|---------------|
---------------|---------------|---------------|---------------|---------------|
---------------|---------------|---------------|---------------|---------------|
---------------|---------------|---------------|---------------|---------------|
---------------|---------------|---------------|---------------|---------------|


---------------|---------------|---------------|---------------|---------------|
---------------|---------------|---------------|---------------|---------------|
---------------|---------------|---------------|---------------|---------------|
---------------|---------------|---------------|---------------|---------------|
---------------|---------------|---------------|---------------|---------------|
---------------|---------------|---------------|---------------|---------------|


---------------|---------------|---------------|---------------|---------------|
---------------|---------------|---------------|---------------|---------------|
---------------|---------------|---------------|---------------|---------------|
---------------|---------------|---------------|---------------|---------------|
---------------|---------------|---------------|---------------|---------------|
---------------|---------------|---------------|---------------|---------------|


---------------|---------------|---------------|---------------|---------------|
---------------|---------------|---------------|---------------|---------------|
---------------|---------------|---------------|---------------|---------------|
---------------|---------------|---------------|---------------|---------------|
---------------|---------------|---------------|---------------|---------------|
---------------|---------------|---------------|---------------|---------------|


---------------|---------------|---------------|---------------|---------------|
---------------|---------------|---------------|---------------|---------------|
---------------|---------------|---------------|---------------|---------------|
---------------|---------------|---------------|---------------|---------------|
---------------|---------------|---------------|---------------|---------------|
---------------|---------------|---------------|---------------|---------------|


---------------|---------------|---------------|---------------|---------------|
---------------|---------------|---------------|---------------|---------------|
---------------|---------------|---------------|---------------|---------------|
---------------|---------------|---------------|---------------|---------------|
---------------|---------------|---------------|---------------|---------------|
---------------|---------------|---------------|---------------|---------------|


                  E  S S E  S S E  S S    E  S S E  S S E  S S
---------------|-----------------------|-----------------------|
---------------|-----------------------|-----------------------|
---------------|-----------------------|----------------5----5-|
---------------|-----------------------|--5----5-7--5-7----7---|
---------------|-------3-5--3-5-7--5-7-|-----7-----------------|
---------------|--5--5-----------------|-----------------------|


  E.    S E  E  Q         Q      Q      Q       E  S S E  S S E  S S
---------------------|-----------------------|-----------------------|
---------------------|-----------------------|-----------------------|
--7br---5----5--7----|--5g7----5g7----5g7----|-----------------------|
----------7----------|-----------------------|-----------------------|
---------------------|-----------------------|-------3-5--3-5-7--5-7-|
---------------------|-----------------------|--5--5-----------------|


  E  S S E  S S E  S S    E.  S E  E    Q         Q      Q      Q
-----------------------|---------------------|-----------------------|
-----------------------|---------------------|-----------------------|
----------------5----5-|--7---5----5--5g7----|--5g7----5g7----7g9----|
--5----5-7--5-7----7---|--------7------------|-----------------------|
-----7-----------------|---------------------|-----------------------|
-----------------------|---------------------|-----------------------|


   |---3---|   |---3---|   |---3---|              |---3---|   |---3---|
   E   E   E   E   E   E   E   E   E      Q       E   E   E   E   E   E
--------------------------------------|----------------------------------|
--------------13--15--15--13--15--15--|--13------13--15--15--13--15--15--|
--12--13--14--------------------------|--14br----------------------------|
--------------------------------------|----------------------------------|
--------------------------------------|----------------------------------|
--------------------------------------|----------------------------------|


   |---3---|   |---3---|   |---3---|
   E   E   E   E   E   E   E   E   E      S  S  E   E   S  S  E   E
--------------------------------------|------------------------------|
--15--13------------------------------|------------------------------|
----------14--12----------------------|------------------------------|
------------------14--13--12--10--12--|--12-10-12--10------------10--|
--------------------------------------|----------------12-10-12------|
--------------------------------------|------------------------------|


  E  S S E  S S E  S S    E  S S E  S S E  S S    E.    S E  E    Q
-----------------------|-----------------------|-----------------------|
-----------------------|-----------------------|-----------------------|
-----------------------|----------------5----5-|--7br---5----5--5g7----|
-----------------------|--5----5-7--5-7----7---|----------7------------|
-------3-5--3-5-7--5-7-|-----7-----------------|-----------------------|
--5--5-----------------|-----------------------|-----------------------|


    Q      Q      Q       E  S S E  S S E  S S    E  S S E  S S E  S S
-----------------------|-----------------------|-----------------------|
-----------------------|-----------------------|-----------------------|
--5g7----5g7----5g7----|-----------------------|----------------5----5-|
-----------------------|-----------------------|--5----5-7--5-7----7---|
-----------------------|-------3-5--3-5-7--5-7-|-----7-----------------|
-----------------------|--5--5-----------------|-----------------------|


  E.    S E  E    Q         Q      Q      Q
-----------------------|-----------------------|
-----------------------|-----------------------|
--7br---5----5--5g7----|--5g7----5g7----5g7----|
----------7------------|-----------------------|
-----------------------|-----------------------|
-----------------------|-----------------------|


   |---3---|   |---3---|   |---3---|
   E   E   E   E   E   E   E   E   E      Q       H
--------------------------------------|---------------------|
--------------13--15--15--13--15--15--|--13------13~--------|
--12--13--14--------------------------|--14br----14~--------|
--------------------------------------|---------------------|
--------------------------------------|---------------------|
--------------------------------------|---------------------|


             |---3---|   |---3---|      |---3---|   |---3---|   |---3---|
   E.     S  E   E   E   E   E   E      E   E   E   E   E   E   E   E   E
------------------------------------|--------------------------------------|
--15br---13-15--15--15--13--15--15--|--13--15--15--13--15--15--13--15--15--|
------------------------------------|--------------------------------------|
------------------------------------|--------------------------------------|
------------------------------------|--------------------------------------|
------------------------------------|--------------------------------------|


   S  S  S  S  S  S  S  S  S  S  S  S     S  S  S  S  S  S  S  S  Q
--------------------------------------|----------------------------------|
--13-15-15-15-13-15-15-15-13-15-15-15-|--13-15-15-15-13-15-15-15-15br----|
--------------------------------------|----------------------------------|
--------------------------------------|----------------------------------|
--------------------------------------|----------------------------------|
--------------------------------------|----------------------------------|


            |---3---|      |---3---|
  H         E   E   E      E   E   E   S  S  S  S  E   E     H.
-----------------------|----------------------------------|---------------|
--L--------13--15--15--|--15--13------13------------------|---------------|
-----------------------|----------14----------------------|---------------|
-----------------------|-----------------14-12-10-12--10--|---------------|
-----------------------|----------------------------------|--0------------|
-----------------------|----------------------------------|---------------|


  H.              H.              H        Q       H.
---------------|---------------|----------------|---------------|
---------------|---------------|----------------|---------------|
---------------|---------------|----------------|---------------|
--0------------|---------------|----------------|---------------|
---------------|---------------|--3--------2----|--0------------|
---------------|--3------------|----------------|---------------|


  Q    Q    Q       H.              H.
-----------------|---------------|---------------||
-----------------|---------------|---------------||
-----------------|---------------|---------------||
-----------------|---------------|---------------||
-----------------|---------------|---------------||
--2----0----2----|--3------------|--L------------||
comments
We did not receive enough feedback on this tab! Please rate:
print report bad tab
1 2 3 4 5
1 comment total.
0 reply
EndlessMike wrote on January 24 2013, 05:39 pm

i love your tab, duder! 5 ****ing stars! but listen, i'm kind of stupid. would you be so kind as to add the lyrics to where they should go on the tab?

I want to post or [tab]
guest
You may want to rate the tab now too:
select rating
Please do not post tabs as comments. Select "correction" instead!