Oops, an error
Loading. Please wait.

Brutal Honesty Tab

318 views 3 this week
no commentswrite comment
1 2 3 4 5
please rate
Autoscroll
+/-
esc
set tempo
stop
Contributor
Difficulty
intermediate
Hey! There's an official Ultimate Guitar app which is ideal
for learning songs when you're away from computer. Get the app
WARNING: You are trying to view
                                    content from Ultimate-Guitar.com
                                    in an unauthorized application,
                                    which is prohibited.

                                    Please use an official Ultimate
                                    Guitar Tabs application for iPhone,
                                    iPad or Android to access legitimate
                                    chords, guitar, bass, and drum tabs
                                    from Ultimate-Guitar.com database.

                                    Type "ultimate guitar tabs" in Apple
                                    App Store's or Android Market's
                                    search to find the application.
Brutal Honesty - bygones
Tabbed by 00stick
Have fun playing!

        PM PM PM    PM    PM    PM PM PM       PM PM PM    PM PM PM            
     E  E  E  E  E  E  E  E  E  E  E  E     E  E  E  E  E  E  E  E  Q    Q     
E||--------------------------------------|------------------------------------|
B||--------------------------------------|--------------------------4----6----|
G||--5-----------2-----3-----2-----------|--------------------------7----9----|
D||--3--0--0--0--0--0--1--0--0--0--0--0--|------------------------------------|
A||--------------------------------------|--6-----------6---------------------|
E||--------------------------------------|--4--4--4--4--4--4--4--4------------|


        PM PM    PM PM PM    PM    PM       PM PM PM    PM PM PM    PM PM PM  
   Q    E  E  E  E  E  E  E  E  E  E     E  E  E  E  E  E  E  E  E  E  E  E   
--------------------------------------|--------------------------------------|
---9----------------------------------|--------------------------------------|
--13----------5-----------2-----3-----|--2-----------------------------------|
--------0--0--3--0--0--0--0--0--1--0--|--0--0--0--0--------------------------|
--------------------------------------|--------------6-----------6-----------|
--------------------------------------|--------------4--4--4--4--4--4--4--4--|


                  PM PM    PM PM PM       PM    PM    PM PM PM    PM PM PM  
  Q    Q     Q    E  E  E  E  E  E     E  E  E  E  E  E  E  E  E  E  E  E   
------------------------------------|--------------------------------------|
--4----6-----9----------------------|--------------------------------------|
--7----9----13----------5-----------|--2-----3-----2-----------------------|
------------------0--0--3--0--0--0--|--0--0--1--0--0--0--0--0--------------|
------------------------------------|--------------------------6-----------|
------------------------------------|--------------------------4--4--4--4--|


     PM PM PM                 PM PM       PM PM PM    PM    PM    PM PM PM  
  E  E  E  E  Q    Q     Q    E  E     E  E  E  E  E  E  E  E  E  E  E  E   
------------------------------------|--------------------------------------|
--------------4----6-----9----------|--------------------------------------|
--------------7----9----13----------|--5-----------2-----3-----2-----------|
------------------------------0--0--|--3--0--0--0--0--0--1--0--0--0--0--0--|
--6---------------------------------|--------------------------------------|
--4--4--4--4------------------------|--------------------------------------|


     PM PM PM    PM PM PM                    PM PM                          
  E  E  E  E  E  E  E  E  Q    Q        Q    E  E  E  E  E  E  E  E  E  E   
------------------------------------|--------------------------------------|
--------------------------4----6----|---9----------------------------------|
--------------------------7----9----|--13----------1-----------------------|
------------------------------------|--------0--0-----3--------------------|
--6-----------6---------------------|--------------------1--2--------------|
--4--4--4--4--4--4--4--4------------|--------------------------1--1--1--1--|


  E  E  E  E  E  E  E  E  E  E  E  E     E  E  E  E  Q.     E   Q    Q     
--------------------------------------|-----------------------------------|
--------------------------------------|-----------------------------------|
--1-----------------------1-----------|-----------------------------------|
-----3-----------------------3--------|---------------------4S--7---------|
--------1--2--------------------1--2--|--------------6------2S--5---------|
--------------1--1--1--1--------------|--1--1--1--1--4---------------0----|


  E  E  E  E  E  E  E  E  E  E  E  E     E  E  E  E  E  E  E  E  E  E  E  E   
--------------------------------------|--------------------------------------|
--------------------------------------|--------------------------------------|
--1-----------------------1-----------|--------------1-----------------------|
-----3-----------------------3--------|-----------------3--------------------|
--------1--2--------------------1--2--|--------------------1--2--------------|
--------------1--1--1--1--------------|--1--1--1--1--------------1--1--1--1--|


  Q.     E   Q    Q    E  E  E  E     E  E  E  E  E  E  E  E  E  E  E  E   
-----------------------------------|--------------------------------------|
-----------------------------------|--------------------------------------|
-----------------------1-----------|--------------1-----------------------|
---------4S--7------------3--------|-----------------3--------------------|
--6------2S--5---------------1--2--|--------------------1--2--------------|
--4---------------0----------------|--1--1--1--1--------------1--1--1--1--|


  E  E  E  E  E  E  E  E  Q.     E      Q    Q    E  E  E  E  E  E  E  E   
-------------------------------------|------------------------------------|
-------------------------------------|------------------------------------|
--1----------------------------------|------------1-----------------------|
-----3---------------------------4S--|--7------------3--------------------|
--------1--2--------------6------2S--|--5---------------1--2--------------|
--------------1--1--1--1--4----------|-------0----------------1--1--1--1--|


  E  E  E  E  E  E  E  E  E  E  E  E     E  E  E  E  Q.     E   Q    Q     
--------------------------------------|-----------------------------------|
--------------------------------------|-----------------------------------|
--1-----------------------1-----------|-----------------------------------|
-----3-----------------------3--------|---------------------4S--7---------|
--------1--2--------------------1--2--|--------------6------2S--5---------|
--------------1--1--1--1--------------|--1--1--1--1--4---------------0----|


     PM PM PM    PM    PM    PM PM PM       PM PM PM    PM PM PM            
  E  E  E  E  E  E  E  E  E  E  E  E     E  E  E  E  E  E  E  E  Q    Q     
--------------------------------------|------------------------------------|
--------------------------------------|--------------------------4----6----|
--5-----------2-----3-----2-----------|--------------------------7----9----|
--3--0--0--0--0--0--1--0--0--0--0--0--|------------------------------------|
--------------------------------------|--6-----------6---------------------|
--------------------------------------|--4--4--4--4--4--4--4--4------------|


        PM PM    PM PM PM    PM    PM       PM PM PM    PM PM PM    PM PM PM  
   Q    E  E  E  E  E  E  E  E  E  E     E  E  E  E  E  E  E  E  E  E  E  E   
--------------------------------------|--------------------------------------|
---9----------------------------------|--------------------------------------|
--13----------5-----------2-----3-----|--2-----------------------------------|
--------0--0--3--0--0--0--0--0--1--0--|--0--0--0--0--------------------------|
--------------------------------------|--------------6-----------6-----------|
--------------------------------------|--------------4--4--4--4--4--4--4--4--|


                  PM PM    PM PM PM       PM    PM    PM PM PM    PM PM PM  
  Q    Q     Q    E  E  E  E  E  E     E  E  E  E  E  E  E  E  E  E  E  E   
------------------------------------|--------------------------------------|
--4----6-----9----------------------|--------------------------------------|
--7----9----13----------5-----------|--2-----3-----2-----------------------|
------------------0--0--3--0--0--0--|--0--0--1--0--0--0--0--0--------------|
------------------------------------|--------------------------6-----------|
------------------------------------|--------------------------4--4--4--4--|


     PM PM PM                 PM PM       PM PM PM    PM    PM    PM PM PM  
  E  E  E  E  Q    Q     Q    E  E     E  E  E  E  E  E  E  E  E  E  E  E   
------------------------------------|--------------------------------------|
--------------4----6-----9----------|--------------------------------------|
--------------7----9----13----------|--5-----------2-----3-----2-----------|
------------------------------0--0--|--3--0--0--0--0--0--1--0--0--0--0--0--|
--6---------------------------------|--------------------------------------|
--4--4--4--4------------------------|--------------------------------------|


     PM PM PM    PM PM PM                    PM PM                          
  E  E  E  E  E  E  E  E  Q    Q        Q    E  E  E  E  E  E  E  E  E  E   
------------------------------------|--------------------------------------|
--------------------------4----6----|---9----------------------------------|
--------------------------7----9----|--13----------1-----------------------|
------------------------------------|--------0--0-----3--------------------|
--6-----------6---------------------|--------------------1--2--------------|
--4--4--4--4--4--4--4--4------------|--------------------------1--1--1--1--|


  E  E  E  E  E  E  E  E  E  E  E  E     E  E  E  E  Q.     E   Q    Q     
--------------------------------------|-----------------------------------|
--------------------------------------|-----------------------------------|
--1-----------------------1-----------|-----------------------------------|
-----3-----------------------3--------|---------------------4S--7---------|
--------1--2--------------------1--2--|--------------6------2S--5---------|
--------------1--1--1--1--------------|--1--1--1--1--4---------------0----|


  E  E  E  E  E  E  E  E  E  E  E  E     E  E  E  E  E  E  E  E  E  E  E  E   
--------------------------------------|--------------------------------------|
--------------------------------------|--------------------------------------|
--1-----------------------1-----------|--------------1-----------------------|
-----3-----------------------3--------|-----------------3--------------------|
--------1--2--------------------1--2--|--------------------1--2--------------|
--------------1--1--1--1--------------|--1--1--1--1--------------1--1--1--1--|


  Q.     E   Q    Q    E  E  E  E     E  E  E  E  E  E  E  E  E  E  E  E   
-----------------------------------|--------------------------------------|
-----------------------------------|--------------------------------------|
-----------------------1-----------|--------------1-----------------------|
---------4S--7------------3--------|-----------------3--------------------|
--6------2S--5---------------1--2--|--------------------1--2--------------|
--4---------------0----------------|--1--1--1--1--------------1--1--1--1--|


  E  E  E  E  E  E  E  E  Q.     E      Q    Q    E  E  E  E  E  E  E  E   
-------------------------------------|------------------------------------|
-------------------------------------|------------------------------------|
--1----------------------------------|------------1-----------------------|
-----3---------------------------4S--|--7------------3--------------------|
--------1--2--------------6------2S--|--5---------------1--2--------------|
--------------1--1--1--1--4----------|-------0----------------1--1--1--1--|


  E  E  E  E  E  E  E  E  E  E  E  E     E  E  E  E  Q.     E  Q    Q     
--------------------------------------|----------------------------------|
--------------------------------------|----------------------------------|
--1-----------------------1-----------|----------------------------------|
-----3-----------------------3--------|---------------------4------------|
--------1--2--------------------1--2--|--------------6------2--5----5----|
--------------1--1--1--1--------------|--1--1--1--1--4---------3----3----|


  Q.     E  Q    Q       Q.     E  Q    Q       Q.     E  Q    Q     
----------------------|----------------------|----------------------|
----------------------|----------------------|----------------------|
----------------------|----------------------|----------------------|
---------4------------|---------4------------|---------4------------|
--6------2--5----5----|--6------2--5----5----|--6------2--5----5----|
--4---------3----3----|--4---------3----3----|--4---------3----3----|


                   T    T       T    T    T    T    T     T                         
  W                Q    Q       Q    Q    Q    Q    Q     Q       W.                
--0--------------------------|---------------------------------|-------------------|
--3--------------------------|---------------------------------|-------------------|
--2--------------------------|----------------------7----10----|--L----------------|
--0--------------------------|------------6----9---------------|-------------------|
--0--------------------------|--5----8-------------------------|-------------------|
-------------------4----7----|---------------------------------|-------------------|


  W                Q    Q       W                H           H        W                 
--0----------------4----5----|--1-------------------------|----------------------------|
--3----------------3----3----|--3-------------------------|----------------------------|
--2----------------2----2----|--2-------------------------|----------------------------|
--0----------------0----0----|--0-------------------------|----------------------------|
--0----------------0----0----|--0----------------3--------|--L--------8----------------|
-----------------------------|-------------------1--------|--L--------6----------------|


                   T    T       T    T    T    T    T     T                         
  W                Q    Q       Q    Q    Q    Q    Q     Q       W.                
-----------------------------|---------------------------------|-------------------|
-----------------------------|---------------------------------|-------------------|
-----------------------------|----------------------7----10----|--L----------------|
--0--------------------------|------------6----9---------------|-------------------|
--0--------------------------|--5----8-------------------------|-------------------|
-------------------4----7----|---------------------------------|-------------------|


  W                Q    Q       W                H           H        W                 
--0----------------4----5----|--1-------------------------|----------------------------|
--3----------------3----3----|--3-------------------------|----------------------------|
--2----------------2----2----|--2-------------------------|----------------------------|
--0----------------0----0----|--0-------------------------|----------------------------|
--0----------------0----0----|--0----------------3--------|--L--------8----------------|
-----------------------------|-------------------1--------|--L--------6----------------|


                   T    T       T    T    T    T    T     T                         
  W                Q    Q       Q    Q    Q    Q    Q     Q       W.                
-----------------------------|---------------------------------|-------------------|
-----------------------------|---------------------------------|-------------------|
-----------------------------|----------------------7----10----|--L----------------|
--0--------------------------|------------6----9---------------|-------------------|
--0--------------------------|--5----8-------------------------|-------------------|
-------------------4----7----|---------------------------------|-------------------|


  W                Q    Q       W                H           H        W                 
--0----------------4----5----|--1-------------------------|----------------------------|
--3----------------3----3----|--3-------------------------|----------------------------|
--2----------------2----2----|--2-------------------------|----------------------------|
--0----------------0----0----|--0-------------------------|----------------------------|
--0----------------0----0----|--0----------------3--------|--L--------8----------------|
-----------------------------|-------------------1--------|--L--------6----------------|


                   T    T       T    T    T    T    T     T                         
  W                Q    Q       Q    Q    Q    Q    Q     Q       W.                
-----------------------------|---------------------------------|-------------------|
-----------------------------|---------------------------------|-------------------|
-----------------------------|----------------------7----10----|--L----------------|
--0--------------------------|------------6----9---------------|-------------------|
--0--------------------------|--5----8-------------------------|-------------------|
-------------------4----7----|---------------------------------|-------------------|


  W                Q    Q       W                H           H        W                 
--0----------------4----5----|--1-------------------------|----------------------------|
--3----------------3----3----|--3-------------------------|----------------------------|
--2----------------2----2----|--2-------------------------|----------------------------|
--0----------------0----0----|--0-------------------------|----------------------------|
--0----------------0----0----|--0----------------3--------|--L--------8----------------|
-----------------------------|-------------------1--------|--L--------6----------------|


                   T    T       T    T    T    T    T     T                         
  W                Q    Q       Q    Q    Q    Q    Q     Q       W.                
-----------------------------|---------------------------------|-------------------|
-----------------------------|---------------------------------|-------------------|
-----------------------------|----------------------7----10----|--L----------------|
--0--------------------------|------------6----9---------------|-------------------|
--0--------------------------|--5----8-------------------------|-------------------|
-------------------4----7----|---------------------------------|-------------------|


  W                Q    Q       W                H           H        W                 
--0----------------4----5----|--1-------------------------|----------------------------|
--3----------------3----3----|--3-------------------------|----------------------------|
--2----------------2----2----|--2-------------------------|----------------------------|
--0----------------0----0----|--0-------------------------|----------------------------|
--0----------------0----0----|--0----------------3--------|--L--------8----------------|
-----------------------------|-------------------1--------|--L--------6----------------|


  W                Q     E  E     E  E  E  E  E  E  E  E  E  E  E  E   
-------------------------------|--------------------------------------|
-------------------------------|--------------------------------------|
-------------------5\----5--5--|--5--5--2--2--3--3--2--2--2--2--------|
--0----------------3\----3--3--|--3--3--0--0--1--1--0--0--0--0--------|
--0----------------------------|--------------------------------6--6--|
-------------------------------|--------------------------------4--4--|


  E  E  E  E  E  E  E  E  E  E  E  E  E  E     E  E  E  E  E  E  E  E  E  E  E  E  E  E   
--------------------------------------------|--------------------------------------------|
--------------------------------------------|--------------------------------------------|
--------------------------------------------|--5--5--5--5--2--2--3--3--2--2--2--2--------|
--------------------------------------------|--3--3--3--3--0--0--1--1--0--0--0--0--------|
--6--6--6--6--6--6--6--6--6--6--6--6--6--6--|--------------------------------------6--6--|
--4--4--4--4--4--4--4--4--4--4--4--4--4--4--|--------------------------------------4--4--|


  E  E  E  E  E  E  Q    Q     Q    E  E     E  E  E  E  E  E  E  E  E  E  E  E  E  E   
------------------------------------------|--------------------------------------------|
--------------------4----6-----9----------|--------------------------------------------|
--------------------7----9----13----------|--5--5--5--5--2--2--3--3--2--2--2--2--------|
------------------------------------------|--3--3--3--3--0--0--1--1--0--0--0--0--------|
--6--6--6--6--6--6------------------6--6--|--------------------------------------6--6--|
--4--4--4--4--4--4------------------4--4--|--------------------------------------4--4--|


  E  E  E  E  E  E  Q    Q     Q    E  E     E  E  E  E  E  E  E  E  E  E  E  E  E  E   
------------------------------------------|--------------------------------------------|
--------------------4----6-----9----------|--------------------------------------------|
--------------------7----9----13----------|--5--5--5--5--2--2--3--3--2--2--2--2--------|
------------------------------------------|--3--3--3--3--0--0--1--1--0--0--0--0--------|
--6--6--6--6--6--6------------------6--6--|--------------------------------------6--6--|
--4--4--4--4--4--4------------------4--4--|--------------------------------------4--4--|


  E  E  E  E  E  E  Q    Q     Q    E  E     E  E  E  E  E  E  E  E  E  E  E  E  E  E   
------------------------------------------|--------------------------------------------|
--------------------4----6-----9----------|--------------------------------------------|
--------------------7----9----13----------|--5--5--5--5--2--2--3--3--2--2--2--2--------|
------------------------------------------|--3--3--3--3--0--0--1--1--0--0--0--0--------|
--6--6--6--6--6--6------------------6--6--|--------------------------------------6--6--|
--4--4--4--4--4--4------------------4--4--|--------------------------------------4--4--|


  E  E  E  E  E  E  Q    Q     Q    E  E     E  E  E  E  E  E  E  E  E  E  E  E  E  E   
------------------------------------------|--------------------------------------------|
--------------------4----6-----9----------|--------------------------------------------|
--------------------7----9----13----------|--5--5--5--5--2--2--3--3--2--2--2--2--------|
------------------------------------------|--3--3--3--3--0--0--1--1--0--0--0--0--------|
--6--6--6--6--6--6------------------6--6--|--------------------------------------6--6--|
--4--4--4--4--4--4------------------4--4--|--------------------------------------4--4--|


  E  E  E  E  E  E  Q    Q     Q    E  E     E  E  E  E  E  E  E  E  E  E  E  E  E  E   
------------------------------------------|--------------------------------------------|
--------------------4----6-----9----------|--------------------------------------------|
--------------------7----9----13----------|--5--5--5--5--2--2--3--3--2--2--2--2--------|
------------------------------------------|--3--3--3--3--0--0--1--1--0--0--0--0--------|
--6--6--6--6--6--6------------------6--6--|--------------------------------------6--6--|
--4--4--4--4--4--4------------------4--4--|--------------------------------------4--4--|


  E  E  E  E  E  E  Q    Q     Q    E  E     E  E  E  E  E  E  E  E  E  E  E  E  E  E   
------------------------------------------|--------------------------------------------|
--------------------4----6-----9----------|--------------------------------------------|
--------------------7----9----13----------|--5--5--5--5--2--2--3--3--2--2--2--2--------|
------------------------------------------|--3--3--3--3--0--0--1--1--0--0--0--0--------|
--6--6--6--6--6--6------------------6--6--|--------------------------------------6--6--|
--4--4--4--4--4--4------------------4--4--|--------------------------------------4--4--|


  E  E  E  E  E  E  Q    Q     Q    E  E     E  E  E  E  E  E  E  E  E  E  E  E  E  E   
------------------------------------------|--------------------------------------------|
--------------------4----6-----9----------|--------------------------------------------|
--------------------7----9----13----------|--5--5--5--5--2--2--3--3--2--2--2--2--------|
------------------------------------------|--3--3--3--3--0--0--1--1--0--0--0--0--------|
--6--6--6--6--6--6------------------6--6--|--------------------------------------6--6--|
--4--4--4--4--4--4------------------4--4--|--------------------------------------4--4--|


  E  E  E  E  E  E  Q    Q     Q    E  E     E  E  E  E  E  E  E  E  E  E  E  E  E  E   
------------------------------------------|--------------------------------------------|
--------------------4----6-----9----------|--------------------------------------------|
--------------------7----9----13----------|--5--5--5--5--2--2--3--3--2--2--2--2--------|
------------------------------------------|--3--3--3--3--0--0--1--1--0--0--0--0--------|
--6--6--6--6--6--6------------------6--6--|--------------------------------------6--6--|
--4--4--4--4--4--4------------------4--4--|--------------------------------------4--4--|


  E  E  E  E  E  E  Q    Q     Q    E  E     E  E  E  E  E  E  E  E  E  E  E  E  E  E   
------------------------------------------|--------------------------------------------|
--------------------4----6-----9----------|--------------------------------------------|
--------------------7----9----13----------|--5--5--5--5--2--2--3--3--2--2--2--2--------|
------------------------------------------|--3--3--3--3--0--0--1--1--0--0--0--0--------|
--6--6--6--6--6--6------------------6--6--|--------------------------------------6--6--|
--4--4--4--4--4--4------------------4--4--|--------------------------------------4--4--|


  E  E  E  E  E  E  Q    Q     Q    E  E     E  E  E  E  E  E  E  E  E  E  E  E  E  E   
------------------------------------------|--------------------------------------------|
--------------------4----6-----9----------|--------------------------------------------|
--------------------7----9----13----------|--5--5--5--5--2--2--3--3--2--2--2--2--------|
------------------------------------------|--3--3--3--3--0--0--1--1--0--0--0--0--------|
--6--6--6--6--6--6------------------6--6--|--------------------------------------6--6--|
--4--4--4--4--4--4------------------4--4--|--------------------------------------4--4--|


  E  E  E  E  E  E  Q    Q     Q    E  E     E  E  E  E  E  E  E  E  E  E  E  E  E  E   
------------------------------------------|--------------------------------------------|
--------------------4----6-----9----------|--------------------------------------------|
--------------------7----9----13----------|--5--5--5--5--2--2--3--3--2--2--2--2--------|
------------------------------------------|--3--3--3--3--0--0--1--1--0--0--0--0--------|
--6--6--6--6--6--6------------------6--6--|--------------------------------------6--6--|
--4--4--4--4--4--4------------------4--4--|--------------------------------------4--4--|


  E  E  E  E  E  E  Q    Q     Q    E  E     E  E  E  E  E  E  E  E  E  E  E  E  E  E   
------------------------------------------|--------------------------------------------|
--------------------4----6-----9----------|--------------------------------------------|
--------------------7----9----13----------|--5--5--5--5--2--2--3--3--2--2--2--2--------|
------------------------------------------|--3--3--3--3--0--0--1--1--0--0--0--0--------|
--6--6--6--6--6--6------------------6--6--|--------------------------------------6--6--|
--4--4--4--4--4--4------------------4--4--|--------------------------------------4--4--|


  E  E  E  E  E  E  Q    Q     Q    E  E     E  E  E  E  E  E  E  E  E  E  E  E  E  E   
------------------------------------------|--------------------------------------------|
--------------------4----6-----9----------|--------------------------------------------|
--------------------7----9----13----------|--5--5--5--5--2--2--3--3--2--2--2--2--------|
------------------------------------------|--3--3--3--3--0--0--1--1--0--0--0--0--------|
--6--6--6--6--6--6------------------6--6--|--------------------------------------6--6--|
--4--4--4--4--4--4------------------4--4--|--------------------------------------4--4--|


  E  E  E  E  E  E  Q    Q     Q    E  E     E  E  E  E  E  E  E  E  E  E  E  E  E  E   
------------------------------------------|--------------------------------------------|
--------------------4----6-----9----------|--------------------------------------------|
--------------------7----9----13----------|--5--5--5--5--2--2--3--3--2--2--2--2--------|
------------------------------------------|--3--3--3--3--0--0--1--1--0--0--0--0--------|
--6--6--6--6--6--6------------------6--6--|--------------------------------------6--6--|
--4--4--4--4--4--4------------------4--4--|--------------------------------------4--4--|


  E  E  E  E  E  E  Q    Q     Q    E  E     E  E  E  E  E  E  E  E  E  E  E  E  E  E   
------------------------------------------|--------------------------------------------|
--------------------4----6-----9----------|--------------------------------------------|
--------------------7----9----13----------|--5--5--5--5--2--2--3--3--2--2--2--2--------|
------------------------------------------|--3--3--3--3--0--0--1--1--0--0--0--0--------|
--6--6--6--6--6--6------------------6--6--|--------------------------------------6--6--|
--4--4--4--4--4--4------------------4--4--|--------------------------------------4--4--|


  E  E  E  E  E  E  Q    Q     Q    E  E     E  E  E  E  E  E  E  E  E  E  E  E  E  E   
------------------------------------------|--------------------------------------------|
--------------------4----6-----9----------|--------------------------------------------|
--------------------7----9----13----------|--5--5--5--5--2--2--3--3--2--2--2--2--------|
------------------------------------------|--3--3--3--3--0--0--1--1--0--0--0--0--------|
--6--6--6--6--6--6------------------6--6--|--------------------------------------6--6--|
--4--4--4--4--4--4------------------4--4--|--------------------------------------4--4--|


  E  E  E  E  E  E  Q    Q     Q    E  E      H        Q    Q    H        Q      
------------------------------------------|-------------------------------------|
--------------------4----6-----9----------|-------------------------------------|
--------------------7----9----13----------|-------------------------------------|
------------------------------------------|--10--------7----8----7--------------|
--6--6--6--6--6--6------------------6--6--|---8--------5----6----5--------6\----|
--4--4--4--4--4--4------------------4--4--|-------------------------------4\----|


  W                  
-------------------||
-------------------||
-------------------||
-------------------||
--L----------------||
--L----------------||




Duration Legend
---------------
W - whole
H - half
Q - quarter
E - 8th
S - 16th
T - 32nd
X - 64th
. - note dotted
|-n-|  - n-tuplets


Tablature Legend
----------------
L - tied note
x - dead note
g - grace note
(n) - ghost note
> - accentuded note
NH - natural harmonic
AH - artificial harmonic
TH - tapped harmonic
SH - semi harmonic
PH - pitch harmonic
h - hammer on
p - pull off
b - bend
br - bendRelease
pb - preBend
pbr - preBendRelease
brb - bendReleaseBend
\n/ - tremolo bar dip
\n - tremolo bar dive
-/n - tremolo bar Release up
/n\ - tremolo bar inverted dip
/n - tremolo bar return
-\n - tremolo bar Release down
S - shift slide
s - legato slide
/ -  slide into from below or out of upwards
\ -  slide into from above or out of downwards
~ - vibrato
W - wide vibrato
tr - trill
TP - tremolo picking
T - tapping
S - slap
P - pop
< - fade in
^ - brush up
v - brush down
comments
We did not receive enough feedback on this tab! Please rate:
print report bad tab
1 2 3 4 5
I want to post or [tab]
guest
You may want to rate the tab now too:
select rating
Please do not post tabs as comments. Select "correction" instead!