Oops, an error
Loading. Please wait.

Black Cat Tab

ver1
ver1

Whole song

Interactive

More versions @911Tabs.com
2,134 views 12 this week
no commentswrite comment
1 2 3 4 5
accurate
x 1
add to favorites launch autoscroll
font size
0
reset
Autoscroll
+/-
esc
set tempo
stop
Contributor
WARNING: You are trying to view
                                    content from Ultimate-Guitar.com
                                    in an unauthorized application,
                                    which is prohibited.

                                    Please use an official Ultimate
                                    Guitar Tabs application for iPhone,
                                    iPad or Android to access legitimate
                                    chords, guitar, bass, and drum tabs
                                    from Ultimate-Guitar.com database.

                                    Type "ultimate guitar tabs" in Apple
                                    App Store's or Android Market's
                                    search to find the application.
                            Black Cat - Cacophony

I have tabbed Jason, because he did the lead guitar here. The other guitars do pretty 
the same, except for the 'rhythm' guitar, just with different notes. If you want the 
lead and the rhythm too, just pm me (iloveyouug)

Jason (lead guitar)

     W
E||-------------------|
B||-------------------|
G||-------------------|
D||-------------------|
A||-------------------|
E||-------------------|


    T T T T T  T  T T Q    H
|-----------------------------------|
|-----------------------------------|
|*----------------------------------|
|*----------------------------------|
|---------5-4p-2p-0-2---------------|
|---0-2-3---------------------------|


  W                   W                 4x
-------------------|--------------------||
-------------------|--------------------||
-------------------|-------------------*||
-------------------|-------------------*||
-------------------|--------------------||
-------------------|--------------------||


        \6/
             |---3---|    |---3---|
  Q     Q    E   E   E    E   E   E
-----------------------------13--14S--|
----------------11--13S--14-----------|
-------10----L------------------------|
--------------------------------------|
--------------------------------------|
--------------------------------------|


   \1/
   E   E   Q       Q     Q    E  E  H
--18--20--23b~----23----23----L--------------|
---------------------------------------------|
---------------------------------------------|
---------------------------------------------|
---------------------------------------------|
---------------------------------------------|


   \1/
   Q    E  E  T S. E   E   E
-------------------------------|
--12---------------------------|
----------------8--8b--L~--7h--|
-----------9-------------------|
--------9----------------------|
-------------------------------|


  S  S S S   E  E  Q     E  E
-------------------------------|
-------------------------------|
--6h-7-7-7br-L--6--------------|
-------------------9~----7-----|
-------------------------------|
-------------------------------|


  E  E  E  E  E.    S X   X  S. S  T  X X
-------------------------------------------|
--------------7~---10-7h-10p-7-------------|
-----6--7--9--------------------9p-7h-L-9h-|
--9----------------------------------------|
-------------------------------------------|
-------------------------------------------|


  E   S  S X   X  S. E  Q.      S  S
---------------------------------------|
---------------------------------------|
--7~--9-11-9h-11p-9--7-----------------|
------------------------9~------L-(5)S-|
---------------------------------------|
---------------------------------------|


                          |-----3-----|
  E.  S S.  T  T S. E.  S E   E  S  T T
----------------------------------------|
--------------------------7--10--7-12-7-|
--------7h-11p-7----7---9---------------|
--7---9----------9----------------------|
----------------------------------------|
----------------------------------------|


  E.    S X   X  S. E    E   E  Q
--------------------------------------|
--7~---10-7h-10p-7--------------------|
--------------------9S--10b--L--L~----|
--------------------------------------|
--------------------------------------|
--------------------------------------|


   Q     T  T  E.   E.   S  X   X   S. S  S
---------------------------------------------|
-----------19~-L---17---19-17h-19p-17----14--|
--16~------11~-L----9---11--9h-11p--9-16--6h-|
---9~----------------------------------9-----|
---------------------------------------------|
---------------------------------------------|


               |--3--|  |--|
   E    S.X  X S  S  S  S  E  H
------------14---17~-L------------------|
--15~--17-L--7---10~-L-15---------------|
---7~---9-L------------17-16--L~--------|
---------------------------9--9~--------|
----------------------------------------|
----------------------------------------|


   Q      E   E   E   E   E   E
---------------------------------|
-----------------16b--L~--L--15--|
--16~--------16------------------|
---------16----------------------|
---------------------------------|
---------------------------------|


   E   S  S   E   E   E.    S  E  E
-------------------------------------|
--14--15-15br-L--14------------------|
---------------------16~---14--------|
------------------------------16--x--|
-------------------------------------|
-------------------------------------|


   E   E   E    E   E.   S  E    S   T.  X
-------------------14---17-14~-------------|
------14--15~--17---------------17S-15h-17-|
--16---------------------------------------|
-------------------------------------------|
-------------------------------------------|
-------------------------------------------|


   E   S   S  X   X   S.  E   S  S  Q     E
---------------------------------------------|
--15--17S-19-17h-19p-17S-15-----15-----------|
-----------------------------16----16~----x--|
---------------------------------------------|
---------------------------------------------|
---------------------------------------------|


                             |-3-|
  E.   S S   T  T E  E.    S E   S S  S
-----------------------------7--10---12-|
---------7h-10p-7----7~---10------------|
--7~---9----------9---------------------|
----------------------------------------|
----------------------------------------|
----------------------------------------|


  E.   S    E   E   E   E   E  S S
--7---10-10g7----------------------|
---------------10--11b--L~--L--L-x-|
-----------------------------------|
-----------------------------------|
-----------------------------------|
-----------------------------------|


   Q      Q     E.   S  E   S  S
---------------------------------|
---------19----17---19-17-----14-|
--16~----------------------16----|
---------------------------------|
---------------------------------|
---------------------------------|


   E   S   S    E    E   Q    E.  S
------------------------------------|
--15--17-(17)b-17~--15--------------|
------------------------16----L-----|
------------------------------------|
------------------------------------|
------------------------------------|


   T  T  T  T  T  T  T  T  T  T  T  T  T  T  T  T  T  T
--------------------------------------------------------|
--------------------17-19-21-19-17----------------------|
--------------16-18----------------18-16----------------|
--------16-18----------------------------18-16----------|
--16-19----------------------------------------19-16-19-|
--------------------------------------------------------|


   T  T  T  T  T  T  T  T  T  T  T  T  T  T  T  T  T  T
--------------------------------------------------------|
--------------------17-19-21-19-17----------------------|
--------------16-18----------------18-16----------------|
--------16-18----------------------------18-16----------|
--16-19----------------------------------------19-16-19-|
--------------------------------------------------------|


   T  T  T  T  T  T  T  T  T  T  T  T  T  T  T  T  T  T
--------------------------------------------------------|
--------------------17-19-21-19-17----------------------|
--------------16-18----------------18-16----------------|
--------16-18----------------------------18-16----------|
--16-19----------------------------------------19-16-19-|
--------------------------------------------------------|


   T  T  T  T  T  T  T  T  T  T  T  T  T  T  T  T  T  T
--------------------------------------------------------|
--------------------17-19-21-19-17----------------------|
--------------16-18----------------18-16----------------|
--------16-18----------------------------18-16----------|
--16-19----------------------------------------19-16-19-|
--------------------------------------------------------|


   T   T  T  T  T   T  T   T  T  T  T   T  T   T  T  T
--19p-16----16-----------------------------------------1-|
---------19----19p-17-19p-17----17-----------------------|
-----------------------------18----18p-16-18p-16---------|
-------------------------------------------------18-16---|
---------------------------------------------------------|
---------------------------------------------------------|


   T   T  T  T  T   T  T   T  T  T  T   T  T   T  T  T
--19p-16----16-------------------------------------------|
---------19----19p-17-19p-17----17-----------------------|
-----------------------------18----18p-16-18p-16----16---|
-------------------------------------------------18----1-|
---------------------------------------------------------|
---------------------------------------------------------|


   E  E   E  E   E  E   E  S  S
---------------------------9-11-|
--------------------9--12-------|
-------------9--11--------------|
------9--11---------------------|
--11----------------------------|
--------------------------------|


   S  S S S T  T  T  T S S H
--12---------------------------------|
-----12-7-9-7h-9p-7h-9---------------|
-----------------------9-8-9~--------|
-------------------------------------|
-------------------------------------|
-------------------------------------|


  T T  T  T T T  T  T  T   T  T  T  T T   T  T  T  T  T
--------------------------------------------------10-12--|p
-------------------10-12p-10----------------10-12--------|
--7---------7-9-11-----------11p-9----9h-11--------------|
----9p-7h-9------------------------12--------------------|
---------------------------------------------------------|
---------------------------------------------------------|


  T T  T  T T T  T T  T  T  T  T  T T   T T  T T  T  T
-----------------------------------------------9-11p-9---|
-------------------9-11p-9----------------9-11---------1-|
--6---------6-8-10---------10p-8----8h-10----------------|
----8p-6h-8----------------------11----------------------|
---------------------------------------------------------|
---------------------------------------------------------|


  T T  T  T T T  T  T  T   T  T  T  T T   T  T  T  T  T
--------------------------------------------------10-12--|p
-------------------10-12p-10----------------10-12--------|
--7---------7-9-11-----------11p-9----9h-12--------------|
----9p-7h-9------------------------12--------------------|
---------------------------------------------------------|
---------------------------------------------------------|


  T T  T  T T T  T T  T  T  T  T  T T   T T  T T  T  T
-----------------------------------------------9-11p-9---|
-------------------9-11p-9----------------9-11---------1-|
--6---------6-8-10---------10p-8----8h-10----------------|
----8p-6h-8----------------------11----------------------|
---------------------------------------------------------|
---------------------------------------------------------|


   |---6--|  |--6--|  |------5-----| |------7-----|  7
   T   T  T  T  T  T  T   T  T  T  T T   T  T  T  T  T
----------------------------------------------------10-1-|
------------------10-15p-10----------------------10------|
---------------10-----------10----------------10---------|
------------12-----------------12----------12------------|
---------12-----------------------12-8h-12---------------|
--10h-13-------------------------------------------------|


  Riffs....
  W                   W
-------------------|-------------------|
-------------------|-------------------|
-------------------|-------------------|
-------------------|-------------------|
-------------------|-------------------|
-------------------|-------------------|


  Now comes the Chorus break!
  W
------------------------------|
------------------------------|
------------------------------|
------------------------------|
------------------------------|
------------------------------|


  |-6-| |--6-| |-6-| |--6-| |-6-| |--6--|  |--6-| |--6--
  S S S S S  S S S S S S  S S S S S  S  S  S  S S S  S
--------3-7p-3-------5-9p-5-------7-11p-7---------9-13p-|
------3------------5------------7---------------9-------|
----4------------6------------8--------------10---------|
--5------------7------------9-------------11------------|
--------------------------------------------------------|
--------------------------------------------------------|


   7  7   7  7  7  7  7                           |--3--
   S  S   S  S  S  S  S  T  T  T  T  T  T   T  T  E  E
---------------------16-20-16---------------------------|
------------------17----------17------------------------|
---------------17----------------17---------------------|
------------18----------------------18------------------|
-----15h-19----------------------------19p-15-----------|
--16------------------------------------------16-12--8--|


                      Solo section 1
  W                   W
-------------------|-------------------|
-------------------|-------------------|
-------------------|-------------------|
-------------------|-------------------|
-------------------|-------------------|
-------------------|-------------------|


   S  S  S   S  S  S  S   S  S  S  S   S  S  S  S   S
------------------15------------------------15--------|
-----15-16p-15-------16p-15----15-16p-15-------16p-15-|
--17-----------17-----------17-----------17-----------|
------------------------------------------------------|
------------------------------------------------------|
------------------------------------------------------|


   |---6--|  |--6--|  |---6--|  |--6--|  |---6--|  |--6-
   S   S  S  S  S  S  S   S  S  S  S  S  S   S  S  S  S
--20p-16------------------------------------------------|
---------20-16-------20p-16-----------------------------|
---------------19-17--------19-17-------19p-17----------|
----------------------------------18-17--------18-17----|
-----------------------------------------------------18-|
--------------------------------------------------------|


   S  S  S   S  S  S  S   S  S  S  S   S  S  S  S   S
------------------13------------------------13--------|
-----13-14p-13-------14p-13----13-14p-13-------14p-13-|
--15-----------15-----------15-----------15-----------|
------------------------------------------------------|
------------------------------------------------------|
------------------------------------------------------|


   |---6--|  |--6--|  |---6--|  |--6--|  |---6--|  |--6-
   S   S  S  S  S  S  S   S  S  S  S  S  S   S  S  S  S
--18p-14------------------------------------------------|
---------18-14-------18p-14-----------------------------|
---------------17-15--------17-15-------17p-15----------|
----------------------------------16-15--------16-15----|
-----------------------------------------------------16-|
--------------------------------------------------------|


   S  S  S   S  S  S  S   S  S  S  S   S  S  S  S   S
-----17-19p-17----22-19p-17----17-19p-17----22-19p-17-|
--18-----------18-----------18-----------18-----------|
------------------------------------------------------|
------------------------------------------------------|
------------------------------------------------------|
------------------------------------------------------|


   |---6--|  |--6--|  |---6--|  |--6--|  |---6--|  |--6-
   S   S  S  S  S  S  S   S  S  S  S  S  S   S  S  S  S
--22p-19------------------------------------------------|
---------22-18-------22p-18-----------------------------|
---------------21-19--------21-19-------21p-19----------|
----------------------------------21-19--------21-19----|
-----------------------------------------------------20-|
--------------------------------------------------------|


  |--6-| |-6-| |----7----| 7 7 ---- |--6--|  6  6 ---- |
  S  S S S S S S  S S S  S S S  S   S  S  S  S  S  S   S
-------------5-8p-5----------------------------13-16p-13-|
-----------7--------7-----------------------15-----------|
--8p-5---8------------8p-5---8-16p-13----16--------------|
-------7-------------------7----------15-----------------|
---------------------------------------------------------|
---------------------------------------------------------|


   |--6--|  |--6-|  |-----7-----|  7 7 ---- |--6--|  6
   S  S  S  S  S S  S  S  S  S  S  S S  S   S  S  S  S
-----------------9-12p-9-------------------------------1-|
--------------11---------11-------------------------19---|
--12p-9----12---------------12p-9----9-19p-17----20------|
--------11------------------------11----------19---------|
---------------------------------------------------------|
---------------------------------------------------------|


  Q    Q    E  E     E  E  E  E  E  E  E  E
------------------|--------------------------|
------------------|--------------------------|
--3----4----7--6--|--3--3--3--3--3--3--3--3--|
--3----4----7--6--|--3--3--3--3--3--3--3--3--|
--1----2----5--4--|--1--1--1--1--1--1--1--1--|
------------------|--------------------------|


  |--6-| |-6-| |--6-| |-6-| |---6--|  |--6--|  |---6--|
  S  S S S S S S  S S S S S S   S  S  S  S  S  S   S  S
-------------2-7p-2------------------------10-14p-10----|
-----------3--------3-------------------12-----------12-|
---------4------------4--------------11-----------------|
-------4----------------4---------12--------------------|
--2h-5--------------------5-9h-14-----------------------|
--------------------------------------------------------|


  |---6--|  |--6--|  |---6--|  |---6--|  |---6--|  |--6-
  S   S  S  S  S  S  S   S  S  S  S   S  S  S   S  S  S
-----------------10-14p-10------------------------------|
--------------12-----------12------------------------15-|
-----------11-----------------11------------------16----|
--------12-----------------------12p-11----12h-16-------|
--9h-14---------------------------------14--------------|
--------------------------------------------------------|


  |--6--|  |--6-|  |--6--|  |--6--| |--6--|  |--6-|  |--
  S S   S  S  S S  S  S  S  S  S  S S S   S  S  S S  S
----------------8-13p-8---------------------------8-13p-|
-------------10---------10---------------------10-------|
----------10---------------10---------------10----------|
----7h-10---------------------10p-7---7h-10-------------|
--8---------------------------------8-------------------|
--------------------------------------------------------|


   |---6--|  |--6--|  |---6--|  |---6--|       |--3-|  |
   S  S   S  S  S  S  S   S  S  S  S   S  S  S S  S S  S
------------------12-17p-12-------------------------9-12-|
---------------14-----------14-------------------10------|
------------14-----------------14--------------9---------|
-----11h-14-----------------------14p-11----11-----------|
--12-------------------------------------12--------------|
---------------------------------------------------------|


  |--6-| |-6-|  |--6-| |--6-| |--6-| |-6-|  |--6-| |--6-
  S S  S S S S  S  S S S S  S S S  S S S S  S  S S S S
-------------5-10p-5---------------------5-10p-5--------|
-----------7---------7-----------------7---------7------|
---------7-------------7-------------7-------------7----|
----4h-7-----------------7p-4---4h-7-----------------7p-|
--5---------------------------5-------------------------|
--------------------------------------------------------|


  |--6-| |-6-|  |--6-| |--6-|        |--3-|  |--6--|  |-
  S S  S S S S  S  S S S S  S S   S  S  S S  S  S  S  S
-------------5-10p-5----------------------9-14p-9-------|
-----------7---------7-----------------11---------11----|
---------7-------------7------------11---------------11-|
----4h-7-----------------7p-4-8h-11---------------------|
--5-----------------------------------------------------|
--------------------------------------------------------|


   |---6--|  |--6--|  |---6--|  |---6--|  |---6--|  |--6
   S  S   S  S  S  S  S   S  S  S  S   S  S  S   S  S  S
------------------14-19p-14------------------------------|
---------------15-----------15------------------------15-|
------------16-----------------16------------------16----|
-----12h-16-----------------------16p-12----12h-16-------|
--14-------------------------------------14--------------|
---------------------------------------------------------|


   |---6--|  |--6--|  |---6--|  |---6--|  |---6--|  |--6
   S  S   S  S  S  S  S   S  S  S  S   S  S  S   S  S  S
------------------14-19p-14------------------------------|
---------------15-----------15------------------------14-|
------------16-----------------16------------------14----|
-----12h-16-----------------------16p-12----11h-14-------|
--14-------------------------------------12--------------|
---------------------------------------------------------|


  |--6--| |-6-|  |--6-| |--6-|   |--6--|  |--6--|   |---
  S   S S S S S  S  S S S S  S   S  S  S  S  S  S   S
--------------7-12p-7-----------------------12-16S-19p-1-|
------------9---------9------------------12--------------|
----------9-------------9-------------13-----------------|
--------9-----------------9--------14--------------------|
--7h-11---------------------11S-14-----------------------|
---------------------------------------------------------|


   |---6--|  |--6--|  |---6--|  |--6--|  |---6--|  |---6
   S   S  S  S  S  S  S   S  S  S  S  S  S   S  S  S  S
------------------16-19p-16----------16-18p-13-----------|
---------------17-----------17----17-----------15--------|
------------16-----------------16-----------------15-----|
---------18------------------------------------------15--|p
--14h-19-------------------------------------------------|
---------------------------------------------------------|


  |--6--| |-6-|  |--6-| |--6-|   |--6--|  |--6--|   |---
  S   S S S S S  S  S S S S  S   S  S  S  S  S  S   S
--------------7-12p-7-----------------------12-16S-19p-1-|
------------9---------9------------------12--------------|
----------9-------------9-------------13-----------------|
--------9-----------------9--------14--------------------|
--7h-11---------------------11S-14-----------------------|
---------------------------------------------------------|


   |---6--|  |--6--|  |---6--|  |--6--|  |---6--|  |---6
   S   S  S  S  S  S  S   S  S  S  S  S  S   S  S  S  S
------------------16-19p-16----------16-18p-13-----------|
---------------17-----------17----17-----------15--------|
------------16-----------------16-----------------15-----|
---------18------------------------------------------15--|p
--14h-19-------------------------------------------------|
---------------------------------------------------------|


  |--6--| |-6-|  |--6-| |--6-|   |--6--|  |--6--|   |---
  S   S S S S S  S  S S S S  S   S  S  S  S  S  S   S
--------------7-12p-7-----------------------12-16S-19p-1-|
------------9---------9------------------12--------------|
----------9-------------9-------------13-----------------|
--------9-----------------9--------14--------------------|
--7h-11---------------------11S-14-----------------------|
---------------------------------------------------------|


   |---6--|  |--6--|  |---6--|  |--6--|  |---6--|  |---6
   S   S  S  S  S  S  S   S  S  S  S  S  S   S  S  S  S
------------------16-19p-16----------16-18p-13-----------|
---------------17-----------17----17-----------15--------|
------------16-----------------16-----------------15-----|
---------18------------------------------------------15--|p
--14h-19-------------------------------------------------|
---------------------------------------------------------|


  |--6--| |-6-|  |--6-| |--6-|   |--6--|  |--6--|   |---
  S   S S S S S  S  S S S S  S   S  S  S  S  S  S   S
--------------7-12p-7-----------------------12-16S-19p-1-|
------------9---------9------------------12--------------|
----------9-------------9-------------13-----------------|
--------9-----------------9--------14--------------------|
--7h-11---------------------11S-14-----------------------|
---------------------------------------------------------|


   |---6--|  |--6--|  |---6--|  |--6--|  |---6--|  |---6
   S   S  S  S  S  S  S   S  S  S  S  S  S   S  S  S  S
------------------16-19p-16----------16-18p-13-----------|
---------------17-----------17----17-----------15--------|
------------16-----------------16-----------------15-----|
---------18------------------------------------------15--|p
--14h-19-------------------------------------------------|
---------------------------------------------------------|


   |---6--|  |--6--|                |---3--|        |--3
   S  S   S  S  S  S  T   T   T  T  S  S   S  S  S  S  S
------------------13-17S-22p-17--------------------------|
---------------15---------------18--------------------15-|
------------15---------------------19--------------15----|
-----12h-15---------------------------19p-15----15-------|
--13-----------------------------------------17----------|
---------------------------------------------------------|


   Break 2
   E       E   S  S  S  S  E   E   E   E
--19------18--17-18-17-16-----------------|
--------------------------20--19--18--19--|
------------------------------------------|
------------------------------------------|
------------------------------------------|
------------------------------------------|


  S  S S S S S  S S S S S S S S E
-----------------------------------|
-----------------------------------|
--7p-5---5-------------------------|
-------7---7-5S-3-5-6-5-3-5-3------|
------------------------------5-3--|
-----------------------------------|


  E  E  E  E  S  S E  E  E     E  E  Q    H
----------------------------|----------------------|
----------------------------|----------------------|
--------2-----4S-5-4--2-----|--2--2--4----L--------|
--4-----2-----4S-5-4--2--4--|--2--2--4----L--------|
--4----------------------4--|----------------------|
-----2-----0----------------|----------------------|


  Outro. Acoustic
  W                   W
-------------------|-------------------|
-------------------|-------------------|
-------------------|-------------------|
-------------------|-------------------|
-------------------|-------------------|
-------------------|-------------------|


  E   Q.     Q     E  E
-------------------------|
-------------------------|
-------------------------|
-------------------------|
-----14------L~----L-----|
-------------------------|


   H        E  S T  T  T  T  S  E
-----------------------------------|
-----------------------------------|
-----------------------------------|
-----------------------------------|
--16--------L--L-L-14-15-16-16-16--|
-----------------------------------|


   E  E   E.   S  Q    Q
-----------------------------|
-----------------------------|
-----------------------------|
--19--L~--L---18-16----L~----|
-----------------------------|
-----------------------------|


   Q.      T  T   S  H
-------------------------------|
-------------------------------|
-------------------------------|
--21~------L-21p-19-18~--------|
-------------------------------|
-------------------------------|


  E   E  X  S T. T  S.S  E.     E   E
---------------------------------------|
---------------------------------------|
------------------------20br~---L--20--|
-----18----19-L----18------------------|
---------------------------------------|
---------------------------------------|


        |----3----|
   E    S    S    S  Q    E.   S  E  S  S
------------------------------------------|
------------------------------------------|
--20--(20)-(20)br-L-18----L~-----16----18-|
------------------------------------------|
------------------------------------------|
------------------------------------------|


      |-3-|   |-3-|
   E  E   S   S   E  Q.     Q
---------------------------------|
---------------------------------|
--16--L--18p-16p-15--L-----------|
---------------------------------|
---------------------------------|
---------------------------------|


   E    E   Q        H
--------------------------------|
--------------------------------|
--17S--19--19pbr----19b~--------|
--------------------------------|
--------------------------------|
--------------------------------|


              |---3---|   |----3---|
   Q    Q     E   E   E   E   E    E
--------------------------------------|
--------------------------------------|
-----------------------------18h--21--|
--21----L~-----------18--21-----------|
-----------------19-------------------|
--------------------------------------|


   |-----3----|              |---3---|
   E   E      E  Q     Q     E   E   E
----------------------------------------|
--19--21--21g19--L~----L~----L--19--21--|
----------------------------------------|
----------------------------------------|
----------------------------------------|
----------------------------------------|


        |--3--|
   E    S  S  S  S  E.  Q     S. T S  S
----------------------------------------|
--21b~----21-19----------------------19-|
----------------21-20---L----20-21------|
----------------------------------------|
----------------------------------------|
----------------------------------------|


  S  E   S Q     Q      E   S  S
-----------------------16--17-19-|
----20b--L-L~----L~--------------|
---------------------------------|
---------------------------------|
---------------------------------|
---------------------------------|


   Q.       E   S   S  S  S  E   E
--20~---------------------------------|
-----------21--21br-L-20-21-19--19br--|
--------------------------------------|
--------------------------------------|
--------------------------------------|
--------------------------------------|


                                              |---3---|
   E.     S  X   X   S  S  T   S T  S.  S  S  E   E   E
--------------------------------------------------------|
--19b~---19-17h-19p-17-16-16h-17---17br-L-16-17---------|
-------------------------------------------------13--12-|
--------------------------------------------------------|
--------------------------------------------------------|
--------------------------------------------------------|


       |-3-|  |-3-|
   E   E   S  E   S E  H
---------------------------------|
---------------------------------|
--13--12--11-10--11-L--L~--------|
---------------------------------|
---------------------------------|
---------------------------------|


                                  |---3---|    |-3-|   |
   S  S  S  S  S   S  T    T   S  E   E   E    E   S   E
-----------12-15p-12-12h-(15)-15-15--14--14p--12--14p-12-|
--------13-----------------------------------------------|
-----12--------------------------------------------------|
--14-----------------------------------------------------|
---------------------------------------------------------|
---------------------------------------------------------|


   S   E.  H.              W
--14p-12---L------------|-------------------|
------------------------|-------------------|
------------------------|-------------------|
------------------------|-------------------|
------------------------|-------------------|
------------------------|-------------------|


  W                   W
-------------------|-------------------|
-------------------|-------------------|
-------------------|-------------------|
-------------------|-------------------|
-------------------|-------------------|
-------------------|-------------------|


  W                   W
-------------------|-------------------|
-------------------|-------------------|
-------------------|-------------------|
-------------------|-------------------|
-------------------|-------------------|
-------------------|-------------------|


  W                   W
-------------------|-------------------||
-------------------|-------------------||
-------------------|-------------------||
-------------------|-------------------||
-------------------|-------------------||
-------------------|-------------------||


Duration Legend
---------------
W - whole
H - half
Q - quarter
E - 8th
S - 16th
T - 32nd
X - 64th
. - note dotted
|-n-|  - n-tuplets


Tablature Legend
----------------
L - tied note
x - dead note
g - grace note
(n) - ghost note
> - accentuded note
NH - natural harmonic
AH - artificial harmonic
TH - tapped harmonic
SH - semi harmonic
PH - pitch harmonic
h - hammer on
p - pull off
b - bend
br - bendRelease
pb - preBend
pbr - preBendRelease
brb - bendReleaseBend
\n/ - tremolo bar dip
\n - tremolo bar dive
-/n - tremolo bar Release up
/n\ - tremolo bar inverted dip
/n - tremolo bar return
-\n - tremolo bar Release down
S - shift slide
s - legato slide
/ -  slide into from below or out of upwards
\ -  slide into from above or out of downwards
~ - vibrato
W - wide vibrato
tr - trill
TP - tremolo picking
T - tapping
S - slap
P - pop
< - fade in
^ - brush up
v - brush down
comments
We did not receive enough feedback on this tab! Please rate:
print report bad tab
1 2 3 4 5
I want to post or [tab]
guest
You may want to rate the tab now too:
select rating
Please do not post tabs as comments. Select "correction" instead!