Oops, an error
Loading. Please wait.

Burn The Ground Tab

ver1
ver1

Whole song

Interactive

More versions @911Tabs.com
620 views 1 this week
no commentswrite comment
1 2 3 4 5
please rate
Autoscroll
+/-
esc
set tempo
stop
Contributor
Hey! There's an official Ultimate Guitar app which is ideal
for learning songs when you're away from computer. Get the app
WARNING: You are trying to view
                                    content from Ultimate-Guitar.com
                                    in an unauthorized application,
                                    which is prohibited.

                                    Please use an official Ultimate
                                    Guitar Tabs application for iPhone,
                                    iPad or Android to access legitimate
                                    chords, guitar, bass, and drum tabs
                                    from Ultimate-Guitar.com database.

                                    Type "ultimate guitar tabs" in Apple
                                    App Store's or Android Market's
                                    search to find the application.
Burn the Ground - Cacophony

Here is the guitar tab of Jason on Burn the Ground. It is very much, and I did not tab 
other guitars into this one. If you want the second lead and the rhythm, you just pm me, 
we'll work it out.
Rock on.

Jason

E||---------------|-------|-------|-------|-------|
B||---------------|-------|-------|-------|-------|
G||---------------|-------|-------|-------|-------|
D||---------------|-------|-------|-------|-------|
A||---------------|-------|-------|-------|-------|
E||---------------|-------|-------|-------|-------|


-------|-------|-------|-------|-------|
-------|-------|-------|-------|-------|
-------|-------|-------|-------|-------|
-------|-------|-------|-------|-------|
-------|-------|-------|-------|-------|
-------|-------|-------|-------|-------|


   |---------5---------| |-----5-----|  |-----7-----|  7
   S          S  S  S  S S  S  S  S  S  S  S  S  S  S  S
---------------------------------------------------------|
--17---------15-13-10-13-5-15-13-10-13-17-15-13-10-13-12-|
---------------------------------------------------------|
---------------------------------------------------------|
---------------------------------------------------------|
---------------------------------------------------------|


   E   E   E   E   E  E  E
----------------------------|
--12------------------------|
------11--------------------|
----------12--11------------|
------------------14--9-----|
----------------------------|

  |------3-----|  |--3--|  |--3--|  |--3--|
  E         E  E  E  E  E  E  E  E  E  E  E
--5---------8--5--8--5--8--5--8--5--8--5--8--|
---------------------------------------------|
---------------------------------------------|
---------------------------------------------|
---------------------------------------------|
---------------------------------------------|


                    <  <  <  <  <  <
  |--3--|  |--3--|  |--3--|  |--3--|
  E  E  E  E  E  E  E  E  E  E  E  E
--5--8--5--8--5--8--5--8--5--8--5--8--|
--------------------------------------|
--------------------------------------|
--------------------------------------|
--------------------------------------|
--------------------------------------|


  <  <  <  <  <  <  <  <  <  <  <  <
  |--3--|  |--3--|  |--3--|  |--3--|
  E  E  E  E  E  E  E  E  E  E  E  E
--5--8--5--8--5--8--5--8--5--8--5--8--|
--------------------------------------|
--------------------------------------|
--------------------------------------|
--------------------------------------|
--------------------------------------|


    NH
    W
---------------------|
---------------------|
--<>4----------------|
---------------------|
---------------------|
---------------------|


   |---3---|   |---3---|   |---3---|   |---3---|
   E   E   E   E   E   E   E   E   E   E   E   E
--------------13--15--17--15--13--------------13--|
--13--14--16----------------------16--14--16------|
--------------------------------------------------|
--------------------------------------------------|
--------------------------------------------------|
--------------------------------------------------|


   |---3---|   |---3---|   |---3---|   |---3---|
   E   E   E   E   E   E   E   E   E   E   E   E
--15--13------13----------------------------------|
----------16------16--14--16--14--12--14--12------|
----------------------------------------------14--|
--------------------------------------------------|
--------------------------------------------------|
--------------------------------------------------|


   H.             E   E      W
-------------------------|---------------------|
-------------------------|---------------------|
--15~-------------L--12--|---L~----------------|
-------------------------|---------------------|
-------------------------|---------------------|
-------------------------|---------------------|


   E    E   E   E    E   E   E   E
------------------------------------|
------------------------------------|
--------------------------------13--|
--13~--12--13--15S--16--15--16------|
------------------------------------|
------------------------------------|


   E   E   E   E   E   E   E   E
----------------------------------|
----------------------------------|
------13--15--13--15--16--15--16--|
--16------------------------------|
----------------------------------|
----------------------------------|


   E   E   E   E   E   E   E   E
----------------------------------|
--------------15------15--16--15--|
--17--16--17------17--------------|
----------------------------------|
----------------------------------|
----------------------------------|


   E   E   E   E   E   E   E   E
------------------15----------16S--|
--16--18--16--18------18--15-------|
-----------------------------------|
-----------------------------------|
-----------------------------------|
-----------------------------------|


   |---3---|   |---3---|   |---3---|   |---3---|
   E   E   E   E   E   E   E   E   E   E   E   E
--19--16--14--------------------------------------|
--------------16----------------------------------|
------------------16--13--------------------------|
--------------------------16----------------------|
------------------------------18--14------14--18--|
--------------------------------------16----------|


   |---3---|   |---3---|   |---3---|
   E   E   E   E   E   E   E   E   E   E  E
---------------------------------------------|
----------16--19--16--19--16-----------------|
------16----------------------16-------------|
--18------------------------------18--16-----|
---------------------------------------------|
---------------------------------------------|


   |----3----|    |----3---|   |----3---|    |----3---|
   E    E    E    E    E   E   E    E   E    E    E   E
--10h--11h--13p--11p--10------11p--10----------------10--|h
--------------------------13-----------13p--11h--13------|
---------------------------------------------------------|
---------------------------------------------------------|
---------------------------------------------------------|
---------------------------------------------------------|


   |----3---|   |----3---|    |----3----|    |----3---|
   E    E   E   E   E    E    E    E    E    E    E   E
--11p--10------10---------------------------------------|
-----------13------13p--11h--13p--11p--10h--11p--10-----|
-----------------------------------------------------12-|
--------------------------------------------------------|
--------------------------------------------------------|
--------------------------------------------------------|


   |---3---|   |---3---|   |---3---|   |---3---|
   E   E   E   E   E   E   E   E   E   E   E   E
--------------------------------------------------|
--11--10--------------10--11--10------10----------|
----------12--10--12--------------12------12--10--|
--------------------------------------------------|
--------------------------------------------------|
--------------------------------------------------|


   |---3--|   |---3--|  |---3---|   |---3--|
   E   E  E   E  E   E  E   E   E   E   E  E
----------------------------------------------|
----------------------------------------------|
--12--10--8--10--8------8---------------------|
--------------------12-----12--10--12--10--8--|
----------------------------------------------|
----------------------------------------------|


   H          E   E   E   E
-----------------------------|
-----------------------------|
-------------------------12--|
---------------------14------|
--12~--------12--16----------|
-----------------------------|


   E   E   E   E    H
----------12--15--(15)b~--------|
------14------------------------|
--14----------------------------|
--------------------------------|
--------------------------------|
--------------------------------|


   E   E     E    E   E   E   E   E
--21--21br--21p--18------18----------|
---------------------22------22--18--|
-------------------------------------|
-------------------------------------|
-------------------------------------|
-------------------------------------|


   W
---------------------|
---------------------|
--21~----------------|
---------------------|
---------------------|
---------------------|


   E   E   E    E   E   E   E   E
-----------------------------------|
--15--14--13S--12------------------|
-------------------15--14--13--14--|
-----------------------------------|
-----------------------------------|
-----------------------------------|


                           |----3----|
   E   E   E   E   E   E   E    E    E
----------------------------------------|
----------------------------------------|
--15--14--15--14--13--14--14p--13h--14--|
----------------------------------------|
----------------------------------------|
----------------------------------------|


   E   E   E   E   E    E   E   E
-----------------------------------|
--------------15-------------------|
------13--14------14p--13----------|
--15-----------------------15--14--|
-----------------------------------|
-----------------------------------|


   W
---------------------|
---------------------|
---------------------|
--12~----------------|
---------------------|
---------------------|


  |----3---|  |----3---|  |----3---|  |----3---|
  E   E    E  E   E    E  E   E    E  E   E    E
--------------------------------------------------|
--------------------------------------------------|
--------------------------------------7h--9h--10--|
--------------------------7h--9h--10--------------|
--------------7h--8h--10--------------------------|
--7h--8h--10--------------------------------------|


  |----3---|  |----3---|  |----3---|  |----3----|
  E   E    E  E   E    E  E   E    E  E    E    E
---------------------------------------------------|
--------------------------------------8h--10h--12--|
--------------------------7h--9h--10---------------|
--------------7h--8h--10---------------------------|
--7h--8h--10---------------------------------------|
---------------------------------------------------|


   |---3---|   |---3---|  |----3----|   |----3---|
   E   E   E   E   E   E  E    E    E   E   E    E
----------------------------------------------------|
--10p--8------10p--8-------------------10-----------|
----------10----------10--9h--10h--12------12p--10--|
----------------------------------------------------|
----------------------------------------------------|
----------------------------------------------------|


         |---3---|
   Q     E   E   E   Q      Q
---------------------------------|
--12----10--12--10---------------|
--------------------12~----10----|
---------------------------------|
---------------------------------|
---------------------------------|


   H.             Q        W
-----------------------|--17~----------------|
--17~------------13----|---------------------|
-----------------------|---------------------|
-----------------------|---------------------|
-----------------------|---------------------|
-----------------------|---------------------|


               |---3---|
   Q.      E   E   E   E   Q        W
--15------17--15--17--15--------|---------------------|
--------------------------17----|--15~----------------|
--------------------------------|---------------------|
--------------------------------|---------------------|
--------------------------------|---------------------|
--------------------------------|---------------------|


   Q     E   E   E   E   E   E      W
--------------------15--17--19--|--19b~----------------|
--17----15--17--18--------------|----------------------|
--------------------------------|----------------------|
--------------------------------|----------------------|
--------------------------------|----------------------|
--------------------------------|----------------------|


   Q      H         E   E
---------------------------|
--18b-----L~-----------18--|
---------------------------|
---------------------------|
---------------------------|
---------------------------|


  E   E   E   E   H
----------------------------|
-----17--15-----------------|
-------------17--16~--------|
----------------------------|
----------------------------|
----------------------------|


   Q      Q      Q         Q
--------------------------------|
--15b-----L----(15)pbr----13----|
--------------------------------|
--------------------------------|
--------------------------------|
--------------------------------|


   Q       H.
--15b----(15)~------------|
--------------------------|
--------------------------|
--------------------------|
--------------------------|
--------------------------|


                         |---3---|
   Q.       E      Q     E   E   E
--15------(15)br---L----12--15--12--|
------------------------------------|
------------------------------------|
------------------------------------|
------------------------------------|
------------------------------------|


   W
--------------------|
--15----------------|
--------------------|
--------------------|
--------------------|
--------------------|


   S  S  S  S  S  S  S  S  S  S  S  S  S  S  S  S
--16-15-14-13-------------------------12-13-14-15-|
--------------17-16-15-14-13-14-15-16-------------|
--------------------------------------------------|
--------------------------------------------------|
--------------------------------------------------|
--------------------------------------------------|


   S  S  S  S  S  S  S  S  S  S  S  S  S  S  S  S
--16-15-14-13-------------------------------------|
--------------17-16-15-14-------------------------|
--------------------------17-16-15-14-------------|
--------------------------------------18-17-16-15-|
--------------------------------------------------|
--------------------------------------------------|


   S  S  S  S  S  S  S  S  S  S  S  S  S  S  S  S
--------------------------------------------------|
--15-14-13-12-------------------------------------|
--------------15-14-13-12-------------------------|
--------------------------16-15-14-13-------------|
--------------------------------------17-16-15-14-|
--------------------------------------------------|


   S  S  S  S  S  S  S  S  Q     Q
--------------------------------------|
--------------------------------------|
--------------------------------------|
--------------------------------------|
--13-12-11-10-------------------------|
--------------14-13-12-11-10~---------|


  Q    Q     Q    Q       Q     Q    Q     Q
-----------------------|------------------------|
-----------------------|-------------8----11----|
------------------7----|--9----11---------------|
--6----8----10---------|------------------------|
-----------------------|------------------------|
-----------------------|------------------------|


                                    Solo Marty Friedman
   Q     Q     Q     Q
-------------------------------------------------------|
--14----11---------------------------------------------|
--------------14---------------------------------------|
--------------------11---------------------------------|
-------------------------------------------------------|
-------------------------------------------------------|


-------------------|-----------|-----------|-----------|
-------------------|-----------|-----------|-----------|
-------------------|-----------|-----------|-----------|
-------------------|-----------|-----------|-----------|
-------------------|-----------|-----------|-----------|
-------------------|-----------|-----------|-----------|


                  3       |---3--|
   E    Q.        Q.      E  E   E
------------------------------------|
--15--(15)b-------L------15-----13--|
------------------------------------|
------------------------------------|
------------------------------------|
------------------------------------|


   |-----3-----|     |-----3-----|
   Q     Q     Q     Q     Q     Q
--------------------------------------|
--------------------------------------|
--14----12----14----12----------------|
--------------------------15----14----|
--------------------------------------|
--------------------------------------|


   |-----3-----|     |-----3-----|
   Q     Q     Q     Q     Q     Q
--------------------------------------|
--------------------------------------|
--12----------------12----14----12----|
--------14----15----------------------|
--------------------------------------|
--------------------------------------|


   Q      H          Q
--------------------------|
--------------------------|
--15----(15)b-------------|
--------------------------|
--------------------------|
--------------------------|


  Solo Jason Becker
                                          |---5---|
  S                 S S S S S S S S S S S S S S S S
--8-----------------7-5-3-7-------------------5-7-8-|
----------------------------5-----------5-6-8-------|
------------------------------7-5-4-5-7-------------|
----------------------------------------------------|
----------------------------------------------------|
----------------------------------------------------|


                     |--3--|  |--3--|
   S  S S S  S S S S E  E  E  E  E  E
--12-10-8-7----------5--8--5--7--5--5--|
------------10-8-6-5-------------------|
---------------------------------------|
---------------------------------------|
---------------------------------------|
---------------------------------------|


   S S S S S S S S S S S S S S S S
-----------------------------------|
--10-9-8-6-9-8-6-5-----------------|
-------------------9-7-5-4-8-5-4-2-|
-----------------------------------|
-----------------------------------|
-----------------------------------|


                                 Solo Marty Friedman
  Q       E    E   H
--8br----(8)b--L--15~-------------------------------|
----------------------------------------------------|
----------------------------------------------------|
----------------------------------------------------|
----------------------------------------------------|
----------------------------------------------------|


-----------|-----------|-----------|-----------|
-----------|-----------|-----------|-----------|
-----------|-----------|-----------|-----------|
-----------|-----------|-----------|-----------|
-----------|-----------|-----------|-----------|
-----------|-----------|-----------|-----------|


                                            |--3--|
  Q      H        Q       E  E  E  E  E  E  E  E  E
-----------------------|-----------------------------|
-----------------------|--2--3--2-----2--------------|
--4b~----L--------L----|-----------4-----4--2--4--2--|
-----------------------|-----------------------------|
-----------------------|-----------------------------|
-----------------------|-----------------------------|


                                            |--3--|
  Q      H        Q       E  E  E  E  E  E  E  E  E
-----------------------|-----------------------------|
-----------------------|--3--4--3-----3--------------|
--5b~----L--------L----|-----------5-----5--3--5--3--|
-----------------------|-----------------------------|
-----------------------|-----------------------------|
-----------------------|-----------------------------|


                                            |--3--|
  Q      H        Q       E  E  E  E  E  E  E  E  E
-----------------------|-----------------------------|
-----------------------|--4--5--4-----4--------------|
--6b~----L--------L----|-----------6-----6--4--6--4--|
-----------------------|-----------------------------|
-----------------------|-----------------------------|
-----------------------|-----------------------------|


   Q     E   E  E   E   E  E
------------------------------|
------------------------------|
--10----10--10-----10--10-----|
------------------------------|
------------------------------|
------------------------------|


   E   E  E   E   H
----------------------------|
----------------------------|
--10--10-----10--10~--------|
----------------------------|
----------------------------|
----------------------------|

              |-----3-----|
   H          Q     Q     Q
-------------------------------|
--16~---------L----15----13----|
-------------------------------|
-------------------------------|
-------------------------------|
-------------------------------|

   Q      H           E   E
-------------------------17--|
--15----(15)b~---------------|
-----------------------------|
-----------------------------|
-----------------------------|
-----------------------------|

    H.              E   E
--(17)b------------16--15--|
---------------------------|
---------------------------|
---------------------------|
---------------------------|
---------------------------|

  Q      H           E   E
-------(15)b~-----------15--|
----------------------------|
----------------------------|
----------------------------|
----------------------------|
----------------------------|

                   |---3---|
   Q.      Q.      E   E   E
--13------15------13--15--13--|
------------------------------|
------------------------------|
------------------------------|
------------------------------|
------------------------------|

   |-----3-----|     |--3--|
   Q     Q     Q     Q     H
--------13----15----------13--------|
--16----------------16--------------|
------------------------------------|
------------------------------------|
------------------------------------|
------------------------------------|

   |-----3-----|     |----3----|   |-3-|
   Q     Q     Q     Q     S   S   E   Q
---L----------13----15----13h-15p-13--------|
--------16----------------------------16----|
--------------------------------------------|
--------------------------------------------|
--------------------------------------------|
--------------------------------------------|

   W                     W
---------------------|--18br----------------|
--15~----------------|----------------------|
---------------------|----------------------|
---------------------|----------------------|
---------------------|----------------------|
---------------------|----------------------|

   W                     E  E  E   Q.       Q
--16~----------------|--15--------15b------15----|
---------------------|---------------------------|
---------------------|---------------------------|
---------------------|---------------------------|
---------------------|---------------------------|
---------------------|---------------------------|

   W
---------------------|
--18~----------------|
---------------------|
---------------------|
---------------------|
---------------------|

   S          S   S   S  S   S   S   S  S   S   S   S  S
--20p--------19p-16p-15-16h-19p-16p-15-18p-16p-15p-13-15-|
---------------------------------------------------------|
---------------------------------------------------------|
---------------------------------------------------------|
---------------------------------------------------------|
---------------------------------------------------------|

   S   S   S   S  S   S   S   S  S   S   S   S  S   S
--16p-15p-13p-11-13h-15p-13p-11-15p-13p-11p-10-11h-13p-1-|
---------------------------------------------------------|
---------------------------------------------------------|
---------------------------------------------------------|
---------------------------------------------------------|
---------------------------------------------------------|

   S   S   S   S   S  S   S   S   S   S   S  S   S  S  S
--13p-11p-10h-11p-10-------------------------------------|
---------------------13p-12h-13p-12h-13p-12p-9h-12p-9----|
------------------------------------------------------12-|
---------------------------------------------------------|
---------------------------------------------------------|
---------------------------------------------------------|

   E   E   H.
-------------------------|
-------------------------|
--12--10---L~------------|
-------------------------|
-------------------------|
-------------------------|

  |---3---|   |---3---|               |---3---|
  E   E   E   E   E   E   S  S  S  S  E   E   E
-----------------------------------------12--15--|
-------------------------------------13----------|
-------------------------12----12-14-------------|
-------------10--12--14-----14-------------------|
---------12--------------------------------------|
--8--12------------------------------------------|

  |---3---|   |---3---|               |---3---|
  E   E   E   E   E   E   S  S  S  S  E   E   E
-----------------------------------------12--15--|
-------------------------------------13----------|
-------------------------12----12-14-------------|
-------------10--12--14-----14-------------------|
---------12--------------------------------------|
--8--12------------------------------------------|

  |---3---|   |---3---|               |---3---|
  E   E   E   E   E   E   S  S  S  S  E   E   E
-----------------------------------------12--15--|
-------------------------------------13----------|
-------------------------12----12-14-------------|
-------------10--12--14-----14-------------------|
---------12--------------------------------------|
--8--12------------------------------------------|

  |---3---|   |---3---|               |---3---|
  E   E   E   E   E   E   S  S  S  S  E   E   E
-----------------------------------------12--15--|
-------------------------------------13----------|
-------------------------12----12-14-------------|
-------------10--12--14-----14-------------------|
---------12--------------------------------------|
--8--12------------------------------------------|

  |---3---|  |---3---|               |---3---|
  E   E   E  E   E   E   S  S  S  S  E   E   E
----------------------------------------10--14--|
------------------------------------12----------|
------------------------12----11-12-------------|
-------------9--10--12-----12-------------------|
---------10-------------------------------------|
--7--10-----------------------------------------|

  |---3---|  |---3---|               |---3---|
  E   E   E  E   E   E   S  S  S  S  E   E   E
----------------------------------------10--14--|
------------------------------------12----------|
------------------------12----11-12-------------|
-------------9--10--12-----12-------------------|
---------10-------------------------------------|
--7--10-----------------------------------------|

  |---3---|  |---3---|               |---3---|
  E   E   E  E   E   E   S  S  S  S  E   E   E
----------------------------------------10--14S--|
------------------------------------12-----------|
------------------------12----11-12--------------|
-------------9--10--12-----12--------------------|
---------10--------------------------------------|
--7--10------------------------------------------|

   |---3---|   |---3---|   |---3---|   |---3---|
   E   E   E   E   E   E   E   E   E   E   E   E
--19--14----------------------------------10--14--|
----------15--------------------------12----------|
--------------16--11--------------11--------------|
----------------------12------12------------------|
--------------------------14----------------------|
--------------------------------------------------|

  |--3--|  |---3--|  |---3---|   |---3--|
  E  E  E  E  E   E  E   E   E   E  E   E
------------------------------------8--13--|
--------------------------------10---------|
----------------------------10-------------|
-----------7--9--10--7--10-----------------|
--------8----------------------------------|
--5--8-------------------------------------|

  |--3--|  |---3--|  |---3---|   |---3--|
  E  E  E  E  E   E  E   E   E   E  E   E
------------------------------------8--13--|
--------------------------------10---------|
----------------------------10-------------|
-----------7--9--10--7--10-----------------|
--------8----------------------------------|
--5--8-------------------------------------|

  |--3--|  |---3--|  |---3---|   |---3--|
  E  E  E  E  E   E  E   E   E   E  E   E
------------------------------------8--13--|
--------------------------------10---------|
----------------------------10-------------|
-----------7--9--10--7--10-----------------|
--------8----------------------------------|
--5--8-------------------------------------|

  |--3--|  |---3--|  |---3---|   |---3--|
  E  E  E  E  E   E  E   E   E   E  E   E
------------------------------------8--13--|
--------------------------------10---------|
----------------------------10-------------|
-----------7--9--10--7--10-----------------|
--------8----------------------------------|
--5--8-------------------------------------|

          |---3--|          |---3--|
  E   E   E  E   E  E   E   E  E   E
--------------------------------------|
--------------------------------------|
--------------------------------------|
---------------------------12--9------|
---------11--8------8--11---------11--|
--7--10---------10--------------------|

          |---3---|   |---3---|   |---3---|
  E   E   E   E   E   E   E   E   E   E   E
---------------------------------10--13--10--|
-----------------------------12--------------|
---------13--10------10--13------------------|
--9--12----------12--------------------------|
---------------------------------------------|
---------------------------------------------|

   |---3---|   |---3---|   |---3---|   |---3---|
   E   E   E   E   E   E   E   E   E   E   E   E
--13--16------------------------------13--16--13--|
----------15----------------------15--------------|
--------------16--13------13--16------------------|
----------------------14--------------------------|
--------------------------------------------------|
--------------------------------------------------|

   |---3---|   |---3---|   |---3---|   |---3---|
   E   E   E   E   E   E   E   E   E   E   E   E
--19--16------------------------------16--19--16--|
----------18----------------------18--------------|
--------------19--16------16--18------------------|
----------------------18--------------------------|
--------------------------------------------------|
--------------------------------------------------|

   H          H
--19b~-----------------|-------------------|
-----------------------|-------------------|
-----------------------|-------------------|
-----------------------|-------------------|
-----------------------|-------------------|
-----------------------|-------------------|


-------------------||--------------------|
-------------------||--------------------|
-------------------||*-------------------|
-------------------||*-------------------|
-------------------||--------------------|
-------------------||--------------------|


-------------------|-------------------|
-------------------|-------------------|
-------------------|-------------------|
-------------------|-------------------|
-------------------|-------------------|
-------------------|-------------------|


                        \3/
                        W
--------------------||--0----------------|
--------------------||-------------------|
-------------------*||-------------------|
-------------------*||-------------------|
--------------------||-------------------|
--------------------||-------------------|

  Solo Jason
  H.            S           S  S  S
--L------------------------------12-|
------------------------------15----|
---------------12----------16-------|
------------------------------------|
------------------------------------|
------------------------------------|

   |-----5-----|
   S  S  S  S  S  S  S  S  S  S  S  S  S  S  S  S  S
--17-12-------------------------------------------12-|
--------15-------------12-13-15-13-12----------15----|
-----------16-12----12----------------14-12-16-------|
-----------------14----------------------------------|
-----------------------------------------------------|
-----------------------------------------------------|


   |-----5-----|  |-----5-----|  |-----5-----|  |-----5-
   S  S  S  S  S  S  S  S  S  S  S  S  S  S  S  S  S  S
--18-12----------------------12-17-12-------------------|
--------15----------------15----------15----------------|
-----------16-12----12-16----------------17-14----14-17-|
-----------------14----------------------------15-------|
--------------------------------------------------------|
--------------------------------------------------------|


   |-----5-----|  |-----5-----|  |-----5-----|  |-----5-
   S  S  S  S  S  S  S  S  S  S  S  S  S  S  S  S  S  S
--20-12----------------------11-18-11-------------------|
--------15----------------14----------14----------------|
-----------16-12----12-15----------------14-12----12-14-|
-----------------13----------------------------15-------|
--------------------------------------------------------|
--------------------------------------------------------|


                                       Solo Marty
   |-----5-----|  |--6--|  |--6--|
   S  S  S  S  S  S  S  S  S  S  S     H.
--18-11----------------------11-17-|--17b~------------|
--------14----------------15-------|------------------|
-----------14-12----14-17----------|------------------|
-----------------15----------------|------------------|
-----------------------------------|------------------|
-----------------------------------|------------------|


-------------------|-------------------|
-------------------|-------------------|
-------------------|-------------------|
-------------------|-------------------|
-------------------|-------------------|
-------------------|-------------------|

  W                   W
-------------------|---------------------|
-------------------|---------------------|
-------------------|---------------------|
-------------------|---------------------|
-------------------|---------------------|
-------------------|---------------------|

  W                   W
-------------------|-------------------|
-------------------|-------------------|
-------------------|-------------------|
-------------------|-------------------|
-------------------|-------------------|
-------------------|-------------------|


  W                    E  E   E   E   E  E   E  E
-------------------|-------------------------------|
-------------------|--12---------------------------|
-------------------|-----------------11------------|
-------------------|------9--11--12---------12--9--|
-------------------|---------------------6---------|
-------------------|-------------------------------|


   E   E   E   E   E  E   E  E
--------------------------------|
----------------------9--13-----|
----------12--------------------|
--11--10----------12------------|
--------------10-------------9--|
--------------------------------|


   E   E   E  E   E   E   E  E
--------------------------------|
--------------------------------|
----------12-----------------7--|
--------------9--11------12-----|
--10--11-------------10---------|
--------------------------------|


   E  E   E   E  H
--------------------------|-----------|
--------------------------|-----------|
--11---------12-----------|-----------|
------9--11---------------|-----------|
--------------------------|-----------|
--------------------------|-----------|


  E  E  H.              W
---------------------|-------------------|
---------------------|-------------------|
---------------------|-------------------|
--2--2--L------------|--L----------------|
--2--2--L------------|--L----------------|
--0--0--L------------|--L----------------|


  W                   W
-------------------|-------------------|
-------------------|-------------------|
-------------------|-------------------|
--L----------------|--L----------------|
--L----------------|--L----------------|
--L----------------|--L----------------|


   |---3---|   |---3---|   |---3---|   |---3---|
   E   E   E   E   E   E   E   E   E   E   E   E
--20--17--------------17--19--16--------------16--|
----------17------17--------------18------18------|
--------------17----------------------19----------|
--------------------------------------------------|
--------------------------------------------------|
--------------------------------------------------|


      |---3---|   |---3---|      |---3---|   |---3--|
      E   E   E   E   E   E      E   E   E   E  E   E
--12g17--12--------------12--10g13--10------10--7--10--|
-------------13------13-----------------12-------------|
-----------------14------------------------------------|
-------------------------------------------------------|
-------------------------------------------------------|
-------------------------------------------------------|


     |---3--|  |---3--|   |--3--|  |--3--|
     E  E   E  E   E  E   E  E  E  E  E  E
--8g12--8-------------8--10--7-----7--4--7--|
-----------10-----10------------9-----------|
---------------9----------------------------|
--------------------------------------------|
--------------------------------------------|
--------------------------------------------|


  |--3--|  |--3--|  |--3--|  |--3--|
  E  E  E  E  E  E  E  E  E  E  E  E
--8--5-----------5--6--3-----------3--|
--------5-----5-----------5-----5-----|
-----------5-----------------6--------|
--------------------------------------|
--------------------------------------|
--------------------------------------|


    |--3--|  |--3--|  |--3--|  |--3--|
    E  E  E  E  E  E  E  E  E  E  E  E
--1g5--1-----------1--------------------|
----------3-----3-----8--5-----------5--|
-------------2--------------6-----6-----|
-------------------------------8--------|
----------------------------------------|
----------------------------------------|


   |--3--|  |--3--|  |--3--|   |--3--|
   E  E  E  E  E  E  E  E  E   E  E  E
----------------------------------------|
----------------------------------------|
--10--7-----------7--9--6------------6--|
---------7-----7-----------8------8-----|
------------8-----------------10--------|
----------------------------------------|


  |--3--|  |--3--|  |--3--|  |--3--|
  E  E  E  E  E  E  E  E  E  E  E  E
--------------------------------------|
--------------------------------------|
--7-----------------5-----------------|
-----7--3-----3--7-----7--4-----4--7--|
-----------5-----------------6--------|
--------------------------------------|


  |--3--|  |--3--|  |--3--|  |--3--|
  E  E  E  E  E  E  E  E  E  E  E  E
--------------------------------------|
--------------------------------------|
--------------------------------------|
--9--5-----------5--7--4-----------4--|
--------7-----7-----------6-----6-----|
-----------7-----------------8--------|


  |--3--|  |--3--|  |--3--|  |--3--|
  E  E  E  E  E  E  E  E  E  E  E  E
--------------------------------------|
--------------------------------------|
--------------------------------------|
--5--2-----------2--4--1-----------1--|
--------2-----2-----------3-----3-----|
-----------3-----------------5--------|


      |---3---|   |---3---|   |---3---|   |---3---|
      E   E   E   E   E   E   E   E   E   E   E   E
--15g19--15--------------15--19--15--------------15--|
-------------17------17--------------17------17------|
-----------------16----------------------16----------|
-----------------------------------------------------|
-----------------------------------------------------|
-----------------------------------------------------|


   |---3---|   |---3---|   |---3---|
   E   E   E   E   E   E   E   E   E   S  S  S  S
--19--15------------------------------------17-15-|
----------17-----------------------------17-------|
--------------16----------------------16----------|
------------------17--16------16--17--------------|
--------------------------19----------------------|
--------------------------------------------------|


   Q    H.
--20-----------------|---------------|
---------------------|---------------|
---------------------|---------------|
---------------------|---------------|
---------------------|---------------|
---------------------|---------------|


   |--3--|  |--3--|   |--3--|  |--3--|
   E  E  E  E  E  E   E  E  E  E  E  E
--11--7-----------7--11--7-----------7--|
---------9-----9------------9-----9-----|
------------8------------------8--------|
----------------------------------------|
----------------------------------------|
----------------------------------------|


   |--3--|  |--3--|   |--3--|
   E  E  E  E  E  E   E  E  E  S S S S
--11--7------------------------------7-|
---------9-------------------------8---|
------------8------------------8-9-----|
---------------9--8------8--9----------|
---------------------11----------------|
---------------------------------------|


   Q    H.
--12-----------------|---------------|
---------------------|---------------|
---------------------|---------------|
---------------------|---------------|
---------------------|---------------|
---------------------|---------------|


   |---3---|  |---3---|   |---3--|   |---3--|
   E   E   E  E   E   E   E  E   E   E   E  E
--12--11--10--9--10--11--10--9--------------9--|
--------------------------------13--12--13-----|
-----------------------------------------------|
-----------------------------------------------|
-----------------------------------------------|
-----------------------------------------------|


   |---3---|   |---3---|   |---3---|   |---3---|
   E   E   E   E   E   E   E   E   E   E   E   E
--------------------------------------------------|
--13--12--11--10--11--12--11--10--------------10--|
----------------------------------13--12--13------|
--------------------------------------------------|
--------------------------------------------------|
--------------------------------------------------|


   |--3--|  |--3--|  |--3--|  |--3--|
   E  E  E  E  E  E  E  E  E  E  E  E
---------------------------------------|
--11--9--8-----------------------------|
------------9--7--5--9--7--6-----------|
------------------------------8--6--5--|
---------------------------------------|
---------------------------------------|


  |--3--|  |--3--|
  E  E  E  E  E  E  Q.     E     H.            Q
------------------------------|---------------------|
------------------------------|--6~------------7----|
------------------------------|---------------------|
------------------------------|---------------------|
-----------9--7--6--5---------|---------------------|
--8--6--5---------------------|---------------------|


   E   E     E  E  H
----------------------------|
--10--10br---L--7--6--------|
----------------------------|
----------------------------|
----------------------------|
----------------------------|


   E   E   E   E   E   E   E   E
------18------18------18------18--|
----------14----------------------|
--15--------------15--------------|
--------------------------15------|
----------------------------------|
----------------------------------|


   E   E   E   E   H            H.             Q
------18------18------------|-----------------------|
----------------------------|--13~------------14----|
----------------------------|-----------------------|
----------------------------|-----------------------|
--16------15------13--------|-----------------------|
----------------------------|-----------------------|


   W
---------------------|
--14b----------------|
---------------------|
---------------------|
---------------------|
---------------------|


   |--3--|  |---3--|   |--3--|  |---3--|
   E  E  E  E   E  E   E  E  E  E   E  E
------------------------------------------|
------------------------------------------|
--10--6-----6--10--6-------------------6--|
---------8------------10--8--6--8--10-----|
------------------------------------------|
------------------------------------------|


   |--3--|  |---3--|   |--3--|  |---3--|
   E  E  E  E   E  E   E  E  E  E   E  E
------------------------------------------|
------------------------------------------|
--10--6-----6--10--6-------------------6--|
---------8------------10--8--6--8--10-----|
------------------------------------------|
------------------------------------------|


   |--3--|  |---3--|   |--3--|  |---3--|
   E  E  E  E   E  E   E  E  E  E   E  E
------------------------------------------|
------------------------------------------|
--10--6-----6--10--6-------------------6--|
---------8------------10--8--6--8--10-----|
------------------------------------------|
------------------------------------------|


   |--3--|  |---3--|   |--3--|  |---3--|
   E  E  E  E   E  E   E  E  E  E   E  E
------------------------------------------|
------------------------------------------|
--10--6-----6--10--6-------------------6--|
---------8------------10--8--6--8--10-----|
------------------------------------------|
------------------------------------------|


   |---3--|  |---3--|   |---3--|   |---3--|
   E  E   E  E   E  E   E   E  E   E   E  E
---------------------------------------------|
---------------------------------------------|
--11--8------8--11--8---------------------8--|
---------10------------11--10--8--10--11-----|
---------------------------------------------|
---------------------------------------------|


   |---3--|  |---3--|   |---3--|   |---3--|
   E  E   E  E   E  E   E   E  E   E   E  E
---------------------------------------------|
---------------------------------------------|
--11--8------8--11--8---------------------8--|
---------10------------11--10--8--10--11-----|
---------------------------------------------|
---------------------------------------------|


   |---3--|  |---3--|   |---3--|   |---3--|
   E  E   E  E   E  E   E   E  E   E   E  E
---------------------------------------------|
---------------------------------------------|
--11--8------8--11--8---------------------8--|
---------10------------11--10--8--10--11-----|
---------------------------------------------|
---------------------------------------------|


   |---3--|  |---3--|   |---3--|   |---3--|
   E  E   E  E   E  E   E   E  E   E   E  E
---------------------------------------------|
---------------------------------------------|
--11--8------8--11--8---------------------8--|
---------10------------11--10--8--10--11-----|
---------------------------------------------|
---------------------------------------------|


   |--3--|  |---3--|   |--3--|  |---3--|
   E  E  E  E   E  E   E  E  E  E   E  E
------------------------------------------|
------------------------------------------|
--10--6-----6--10--6-------------------6--|
---------8------------10--8--6--8--10-----|
------------------------------------------|
------------------------------------------|


   |--3--|  |---3--|   |--3--|  |---3--|
   E  E  E  E   E  E   E  E  E  E   E  E
------------------------------------------|
------------------------------------------|
--10--6-----6--10--6-------------------6--|
---------8------------10--8--6--8--10-----|
------------------------------------------|
------------------------------------------|


   |--3--|  |---3--|   |--3--|  |---3--|
   E  E  E  E   E  E   E  E  E  E   E  E
------------------------------------------|
------------------------------------------|
--10--6-----6--10--6-------------------6--|
---------8------------10--8--6--8--10-----|
------------------------------------------|
------------------------------------------|


   |--3--|  |---3--|   |--3--|  |---3--|
   E  E  E  E   E  E   E  E  E  E   E  E
------------------------------------------|
------------------------------------------|
--10--6-----6--10--6-------------------6--|
---------8------------10--8--6--8--10-----|
------------------------------------------|
------------------------------------------|


   |---3--|  |---3--|   |---3--|   |---3--|
   E  E   E  E   E  E   E   E  E   E   E  E
---------------------------------------------|
---------------------------------------------|
--11--8------8--11--8---------------------8--|
---------10------------11--10--8--10--11-----|
---------------------------------------------|
---------------------------------------------|


   |---3--|  |---3--|   |---3--|   |---3--|
   E  E   E  E   E  E   E   E  E   E   E  E
---------------------------------------------|
---------------------------------------------|
--11--8------8--11--8---------------------8--|
---------10------------11--10--8--10--11-----|
---------------------------------------------|
---------------------------------------------|


   |---3--|  |---3--|   |---3--|   |---3--|
   E  E   E  E   E  E   E   E  E   E   E  E
---------------------------------------------|
---------------------------------------------|
--11--8------8--11--8---------------------8--|
---------10------------11--10--8--10--11-----|
---------------------------------------------|
---------------------------------------------|


   |---3--|  |---3--|   |---3--|   |---3--|
   E  E   E  E   E  E   E   E  E   E   E  E
---------------------------------------------|
---------------------------------------------|
--11--8------8--11--8---------------------8--|
---------10------------11--10--8--10--11-----|
---------------------------------------------|
---------------------------------------------|

                     |-----5-----|  |-----5-----|  |----
   S           S  S  S  S  S  S  S  S  S  S  S  S  S  S
--14----------10----14-10----------10-------------------|
-----------------14-------14-10-------14-10-------14-10-|
--------------------------------12----------13-11-------|
--------------------------------------------------------|
--------------------------------------------------------|
--------------------------------------------------------|

   |-----5-----|  |-----5-----|  |-----5-----|
   S  S  S  S  S  S  S  S  S  S  S  S  S  S  S E   Q
--------------------------------------------------------|
--------------------------------------------------------|
--13-11----------11-------------------------------------|
--------12-11-------12-11-------12-11-------------------|
--------------12----------12-11-------12-11-------------|
--------------------------------------------14----13----|

            |-----5-----|  |-----5-----|  |-----5-----|
   S  S  S  S  S  S  S  S  S  S  S  S  S  S  S  S  S  S
--15-11----15-11----------11----------------------------|
--------15-------15-11-------15-11-------15-11----------|
-----------------------13----------14-12-------14-12----|
-----------------------------------------------------13-|
--------------------------------------------------------|
--------------------------------------------------------|

   |-----5-----|  |-----5-----|  |-----5-----|
   S  S  S  S  S  S  S  S  S  S  S  S  S  S  S E   Q
--------------------------------------------------------|
--------------------------------------------------------|
--14-12----------12-------------------------------------|
--------13-12-------13-12-------13-12-------------------|
--------------13----------13-12-------13-12-------------|
--------------------------------------------15----14----|

            |-----5-----|  |-----5-----|  |-----5-----|
   S  S  S  S  S  S  S  S  S  S  S  S  S  S  S  S  S  S
--16-12----16-12----------12----------------------------|
--------16-------16-12-------16-12-------16-12----------|
-----------------------14----------15-13-------15-13----|
-----------------------------------------------------14-|
--------------------------------------------------------|
--------------------------------------------------------|

   |-----5-----|  |-----5-----|  |-----5-----|
   S  S  S  S  S  S  S  S  S  S  S  S  S  S  S E   Q
--------------------------------------------------------|
--------------------------------------------------------|
--15-13----------13-------------------------------------|
--------14-13-------14-13-------14-13-------------------|
--------------14----------14-13-------14-13-------------|
--------------------------------------------16----15----|

                                              4x
-------||------------|-------|-------|--------||
-------||------------|-------|-------|--------||
-------||*-----------|-------|-------|-------*||
-------||*-----------|-------|-------|-------*||
-------||------------|-------|-------|--------||
-------||------------|-------|-------|--------||


Duration Legend
---------------
W - whole
H - half
Q - quarter
E - 8th
S - 16th
T - 32nd
X - 64th
. - note dotted
|-n-|  - n-tuplets


Tablature Legend
----------------
L - tied note
x - dead note
g - grace note
(n) - ghost note
> - accentuded note
NH - natural harmonic
AH - artificial harmonic
TH - tapped harmonic
SH - semi harmonic
PH - pitch harmonic
h - hammer on
p - pull off
b - bend
br - bendRelease
pb - preBend
pbr - preBendRelease
brb - bendReleaseBend
\n/ - tremolo bar dip
\n - tremolo bar dive
-/n - tremolo bar Release up
/n\ - tremolo bar inverted dip
/n - tremolo bar return
-\n - tremolo bar Release down
S - shift slide
s - legato slide
/ -  slide into from below or out of upwards
\ -  slide into from above or out of downwards
~ - vibrato
W - wide vibrato
tr - trill
TP - tremolo picking
T - tapping
S - slap
P - pop
< - fade in
^ - brush up
v - brush down
comments
We did not receive enough feedback on this tab! Please rate:
print report bad tab
1 2 3 4 5
I want to post or [tab]
guest
You may want to rate the tab now too:
select rating
Please do not post tabs as comments. Select "correction" instead!