Oops, an error
Loading. Please wait.

Desert Island Tab

1,989 views 3 this week
no commentswrite comment
1 2 3 4 5
excellent!
x 1
Autoscroll
+/-
esc
set tempo
stop
Contributor
WARNING: You are trying to view
                                    content from Ultimate-Guitar.com
                                    in an unauthorized application,
                                    which is prohibited.

                                    Please use an official Ultimate
                                    Guitar Tabs application for iPhone,
                                    iPad or Android to access legitimate
                                    chords, guitar, bass, and drum tabs
                                    from Ultimate-Guitar.com database.

                                    Type "ultimate guitar tabs" in Apple
                                    App Store's or Android Market's
                                    search to find the application.
Desert Island - Cacophony

Again, just Jason, the lead guitar, if you want the second lead, or the rhythm guitar, 
me (it is very much to tab, so thats why I didnt do it all together).

Jason

E||-------|-------|-------|-------|-------|-------|
B||-------|-------|-------|-------|-------|-------|
G||-------|-------|-------|-------|-------|-------|
D||-------|-------|-------|-------|-------|-------|
A||-------|-------|-------|-------|-------|-------|
E||-------|-------|-------|-------|-------|-------|


                   \1/            \1/
                   Q.        E    Q      Q
-------|-------|--14br------18b--20S----(2)----|-------|
-------|-------|-------------------------------|-------|
-------|-------|-------------------------------|-------|
-------|-------|-------------------------------|-------|
-------|-------|-------------------------------|-------|
-------|-------|-------------------------------|-------|


-------|-------|
-------|-------|
-------|-------|
-------|-------|
-------|-------|
-------|-------|


   |---3---|   |---3---|   |---3---|   |-3-|
   E   E   E   E   E   E   E   E   E   E   Q
--17--14--------------13-------------------------|
----------14--------------14--13------14--13S----|
--------------14--13--------------14-------------|
-------------------------------------------------|
-------------------------------------------------|
-------------------------------------------------|


  E  E  E  S  S E  E  S  S S  S
--------------------------------|
--------------------------------|
--------------------------------|
--------------------------------|
--2--2--2--2----2--2--3p-2------|
--0--0--0--1h-3-0--0-------3p-1-|


  E  E  E  S  S E  E  S  S S  S
--------------------------------|
--------------------------------|
--------------------------------|
--------------------------------|
--2--2--2--2----2--2--3p-2------|
--0--0--0--1h-3-0--0-------3p-1-|


  E  E  E  S  S E  E  S  S S  S
--------------------------------|
--------------------------------|
--------------------------------|
--------------------------------|
--2--2--2--2----2--2--3p-2------|
--0--0--0--1h-3-0--0-------3p-1-|


  E  E  E  S  S E  E  S  S S  S
--------------------------------|
--------------------------------|
--------------------------------|
--------------------------------|
--2--2--2--2----2--2--3p-2------|
--0--0--0--1h-3-0--0-------3p-1-|


  E  E  E  S  S E  E  S  S S  S
--------------------------------|
--------------------------------|
--------------------------------|
--------------------------------|
--4--4--4--4----4--4--4p-0------|
--2--2--2--3h-5-2--2-------3p-2-|


  E  E  E  S  S E  E  S  S S  S
--------------------------------|
--------------------------------|
--------------------------------|
--------------------------------|
--4--4--4--4----4--4--4p-0------|
--2--2--2--3h-5-2--2-------3p-2-|


  E  E  E  S  S E  E  S  S S  S
--------------------------------|
--------------------------------|
--------------------------------|
--------------------------------|
--4--4--4--4----4--4--4p-0------|
--2--2--2--3h-5-2--2-------3p-2-|


  E  E  E  S  S E  E  S  S S  S
--------------------------------|
--------------------------------|
--------------------------------|
--------------------------------|
--4--4--4--4----4--4--4p-0------|
--2--2--2--3h-5-2--2-------3p-2-|


  E  E  E  S  S E  E  S  S S  S
--------------------------------|
--------------------------------|
--------------------------------|
--------------------------------|
--2--2--2--2----2--2--3p-2------|
--0--0--0--1h-3-0--0-------3p-1-|


  E  E  E  S  S E  E  S  S S  S
--------------------------------|
--------------------------------|
--------------------------------|
--------------------------------|
--2--2--2--2----2--2--3p-2------|
--0--0--0--1h-3-0--0-------3p-1-|


  E  E  E  S  S E  E  S  S S  S
--------------------------------|
--------------------------------|
--------------------------------|
--------------------------------|
--2--2--2--2----2--2--3p-2------|
--0--0--0--1h-3-0--0-------3p-1-|


  E  E  E  S  S E  E  S  S S  S
--------------------------------|
--------------------------------|
--------------------------------|
--------------------------------|
--2--2--2--2----2--2--3p-2------|
--0--0--0--1h-3-0--0-------3p-1-|


  E  E  E  E  E  E  E  E     E  E  E  Q    E  E  E
--------------------------|-------------------------|
--------------------------|-------------------------|
--------------------------|-------------------------|
-----------5--4--------5--|--4--------7-------------|
--4--4--4--5--4--4--4--5--|--4--4--4--7----4--7--5--|
--2--2--2--3--2--2--2--3--|--2--2--2--5----2--5--3--|


  E  E  E  E  E  E  E  E     E  E  E  Q    E  E  E
--------------------------|-------------------------|
--------------------------|-------------------------|
--------------------------|-------------------------|
-----------5--4--------5--|--4--------7-------------|
--4--4--4--5--4--4--4--5--|--4--4--4--7----4--7--5--|
--2--2--2--3--2--2--2--3--|--2--2--2--5----2--5--3--|


  E  E  E  E  E  E  E  E     E  E  E  Q    E  E  E
--------------------------|-------------------------|
--------------------------|-------------------------|
--------------------------|-------------------------|
-----------5--4--------5--|--4--------7-------------|
--4--4--4--5--4--4--4--5--|--4--4--4--7----4--7--5--|
--2--2--2--3--2--2--2--3--|--2--2--2--5----2--5--3--|


  E  E  E  E  E  E  Q
-------------------------|
-------------------------|
-------------------------|
-----------5--4-----5----|
--4--4--4--5--4--4--5----|
--2--2--2--3--2--2--3----|


  S S  S S S  S S  S  S  S S  S S S  S S
-----------------------------------------|
----------------8-10-12-10-8-------------|
---------7-9-10--------------10-9-7------|
--7-9-10----------------------------10-9-|
--L--------------------------------------|
--L--------------------------------------|


    H        H
|---------------------|-----------|-----------|
|---------------------|-----------|-----------|
|*--------------------|-----------|-----------|
|*--8-----------------|-----------|-----------|
|---------------------|-----------|-----------|
|---------------------|-----------|-----------|


-----------|-----------|-----------|-----------|
-----------|-----------|-----------|-----------|
-----------|-----------|-----------|-----------|
-----------|-----------|-----------|-----------|
-----------|-----------|-----------|-----------|
-----------|-----------|-----------|-----------|


              ^
              W
-----------|-------------------|
-----------|-------------------|
-----------|-------------------|
-----------|--2----------------|
-----------|--2----------------|
-----------|--0----------------|


                             ^
  Q     E  Q     E  Q        W
--------------------------|-------------------|
--------------------------|-------------------|
--------------------------|-------------------|
--7S----2--7S----2--7S----|--3----------------|
--7S----2--7S----2--7S----|--3----------------|
--5S----0--5S----0--5S----|--1----------------|


  Q     E  Q     E  Q
--------------------------|-----------|-----------|
--------------------------|-----------|-----------|
--------------------------|-----------|-----------|
--7S----3--7S----3--7S----|-----------|-----------|
--7S----3--7S----3--7S----|-----------|-----------|
--5S----1--5S----1--5S----|-----------|-----------|


              H        S  S S S S S S S
-----------|-----------8-----------------||
-----------|-------------10-8------------||
-----------|------------------9-7-------*||
-----------|----------------------9-7---*||
-----------|--------------------------9--||
-----------|-----------------------------||


                          ^
  H        E  E  E  E     W
-----------------------|-------------------|
-----------------------|-------------------|
-----------------------|--7----------------|
--------------4--4--4--|--7----------------|
--------------4--4--4--|--5----------------|
--------------2--2--2--|-------------------|


           ^      ^
  H        Q.     E     W
---------------------|-------------------|
---------------------|-------------------|
--L--------4---------|-------------------|
--L--------4------2--|--L----------------|
--L--------2------2--|--L----------------|
------------------0--|--L----------------|


  W
-------------------|-----------|-----------|-----------|
-------------------|-----------|-----------|-----------|
-------------------|-----------|-----------|-----------|
--L----------------|-----------|-----------|-----------|
--L----------------|-----------|-----------|-----------|
--L----------------|-----------|-----------|-----------|


                          ^
  H        E  E  E  E     W
-----------------------|-------------------|
-----------------------|-------------------|
-----------------------|--7----------------|
--------------4--4--4--|--7----------------|
--------------4--4--4--|--5----------------|
--------------2--2--2--|-------------------|


           ^      ^
  H        Q.     E     W
---------------------|-------------------|
---------------------|-------------------|
--L--------4---------|-------------------|
--L--------4------2--|--L----------------|
--L--------2------2--|--L----------------|
------------------0--|--L----------------|


  W
-------------------|-----------|-----------|-----------|
-------------------|-----------|-----------|-----------|
-------------------|-----------|-----------|-----------|
--L----------------|-----------|-----------|-----------|
--L----------------|-----------|-----------|-----------|
--L----------------|-----------|-----------|-----------|


  S S  S S S  S S  S  S  S S  S S S  S S
-----------------------------------------|
----------------8-10-12-10-8-------------|
---------7-9-10--------------10-9-7------|
--7-9-10----------------------------10-9-|
-----------------------------------------|
-----------------------------------------|


  H        H
--------------------|-----------|-----------|
--------------------|-----------|-----------|
--------------------|-----------|-----------|
--8-----------------|-----------|-----------|
--------------------|-----------|-----------|
--------------------|-----------|-----------|


-----------|-----------|-----------|-----------|
-----------|-----------|-----------|-----------|
-----------|-----------|-----------|-----------|
-----------|-----------|-----------|-----------|
-----------|-----------|-----------|-----------|
-----------|-----------|-----------|-----------|


              ^
              W
-----------|-------------------|
-----------|-------------------|
-----------|-------------------|
-----------|--2----------------|
-----------|--2----------------|
-----------|--0----------------|


                             ^
  Q     E  Q     E  Q        W
--------------------------|-------------------|
--------------------------|-------------------|
--------------------------|-------------------|
--7S----2--7S----2--7S----|--3----------------|
--7S----2--7S----2--7S----|--3----------------|
--5S----0--5S----0--5S----|--1----------------|


  Q     E  Q     E  Q
--------------------------|-----------|-----------|
--------------------------|-----------|-----------|
--------------------------|-----------|-----------|
--7S----3--7S----3--7S----|-----------|-----------|
--7S----3--7S----3--7S----|-----------|-----------|
--5S----1--5S----1--5S----|-----------|-----------|


                                      ^
              H        E  E  E  E     W
-----------|-----------------------|-------------------|
-----------|-----------------------|-------------------|
-----------|-----------------------|--7----------------|
-----------|--------------4--4--4--|--7----------------|
-----------|--------------4--4--4--|--5----------------|
-----------|--------------2--2--2--|-------------------|


           ^      ^
  H        Q.     E     W
---------------------|-------------------|
---------------------|-------------------|
--L--------4---------|-------------------|
--L--------4------2--|--L----------------|
--L--------2------2--|--L----------------|
------------------0--|--L----------------|


  W
-------------------|-----------|-----------|-----------|
-------------------|-----------|-----------|-----------|
-------------------|-----------|-----------|-----------|
--L----------------|-----------|-----------|-----------|
--L----------------|-----------|-----------|-----------|
--L----------------|-----------|-----------|-----------|


                          ^
  H        E  E  E  E     W
-----------------------|-------------------|
-----------------------|-------------------|
-----------------------|--7----------------|
--------------4--4--4--|--7----------------|
--------------4--4--4--|--5----------------|
--------------2--2--2--|-------------------|


           ^      ^
  H        Q.     E     W
---------------------|-------------------|
---------------------|-------------------|
--L--------4---------|-------------------|
--L--------4------2--|--L----------------|
--L--------2------2--|--L----------------|
------------------0--|--L----------------|


  H.           E   E       H.           E  E
------------------------|---------------------|
-------------------9br--|--L------------L-----|
------------------10br--|--L------------L-----|
--L---------------------|---------------------|
--L---------------------|---------------------|
--L---------------------|------------------7--|


  E   E   E  E  E   E   E   E
-------------------------------|
-------------------------------|
-------------------------------|
-----------------------11--10--|
---------10--9--8--11----------|
--L--10------------------------|


  E   E   E   E   E   E   E   E
---------------------------------|
-------------------------14--13--|
---------12--11--10--13----------|
--9--12--------------------------|
---------------------------------|
---------------------------------|


   E   E   E   E   E   E   E   E
----------15--14--13--16--21--20--|
--12--14--------------------------|
----------------------------------|
----------------------------------|
----------------------------------|
----------------------------------|


   Q     H.                Q      Q.     S E  S E
--19----20b------------|---------------------------|
-----------------------|----------------------9----|
-----------------------|-----------------9---------|
-----------------------|--11pb----L----------------|
-----------------------|---------------------------|
-----------------------|---------------------------|


   Q      Q.     E.  E.     Q      Q.      E.   E.
-------------------------|--------------------------|
--10pb----L------9---8---|--9pb----L------12---12---|
-------------------------|--------------------------|
-------------------------|--------------------------|
-------------------------|--------------------------|
-------------------------|--------------------------|


   Q.      E.   Q.       S
---------------------------|
--12------10---10pb------L-|
---------------------------|
---------------------------|
---------------------------|
---------------------------|


  |-----3----|
  Q     Q    Q    E.  E.  E
----------------------9------|
------------------9-------9--|
-------------9---------------|
-------11--------------------|
-----------------------------|
-----------------------------|


   E.  E.  E.   E.   Q        Q    H.
--------------------------|-----------------------|
--10---9------------------|-----------------------|
-----------9--------------|-----------------------|
---------------11----L----|--11----9pb------------|
--------------------------|-----------------------|
--------------------------|-----------------------|


                        <
  W                     Q    Q.      E.  E.
---------------------|-----------------------|
---------------------|-----------------------|
---------------------|--9----L-----------9---|
--7pb----------------|--------------11-------|
---------------------|-----------------------|
---------------------|-----------------------|


  <
  H        Q.     E     S H         E.  Q
--7------------------|-------------------------|
-----------9------8--|----8b--------L---8pb----|
---------------------|-------------------------|
---------------------|-------------------------|
---------------------|-------------------------|
---------------------|-------------------------|


   W                     H.             Q
--10b----------------|-------------------------|
---------------------|--13b------------13br----|
---------------------|-------------------------|
---------------------|-------------------------|
---------------------|-------------------------|
---------------------|-------------------------|


  E   E   E   E   E   T   T   S  E   E
----------------------------------------|
--L--12--14-----------------------------|
-------------13--14--13h-14p-13-11------|
------------------------------------14--|
----------------------------------------|
----------------------------------------|


                                           W
   H          Q.       S  S     H          H
----------------------------|------------------------|
-------------10br------L----|--10~--------12b--------|
-------------------------13-|------------------------|
--14~-----------------------|------------------------|
----------------------------|------------------------|
----------------------------|------------------------|


   W          W
   H          H
--10b--------12b--------|
------------------------|
------------------------|
------------------------|
------------------------|
------------------------|


   T  T  T  T  T  T  T  T  T  T  T  T  T  T  T  T  T  T
--17-17-17-17-17-17-17-17-17-17-17-17-17-17-17-17-16-16-|
--------------------------------------------------------|
--------------------------------------------------------|
--------------------------------------------------------|
--------------------------------------------------------|
--------------------------------------------------------|


   T  T  T  T  T  T  T  T  T  T  T  T  Q      S  S  S
--14-14-14-14-14-14-14-14-14-14-14-14--------------17b-1-|
--------------------------------------17b----14-17-------|
---------------------------------------------------------|
---------------------------------------------------------|
---------------------------------------------------------|
---------------------------------------------------------|


   T  T  T  T  T  T  T  T  T  T  T  T  S  S  S  S  S  S
--14-14-14-14----------14-14-14-17-17-14-14-------------|
--------------14-14-14----------------------17-14-------|
--------------------------------------------------16-14-|
--------------------------------------------------------|
--------------------------------------------------------|
--------------------------------------------------------|


                                 |---3---|
   E   S  S  S  S  S   S   Q     E   E   E
--------------------------------------------|
----------------------------------------14--|
------------14----------------------14------|
---------16----16-16p-14S-16----16----------|
------16------------------------------------|
--14----------------------------------------|


   W
         |---3---|   |---6--|   |--6--|  |-6-|  |---6---
   Q     E   E   E   S  S   S   S  S  S  S S S  S   S
---------------------------------------------------------|
--14-------------------14h-15p-14------------------------|
--------14------16--14------------16-13------------------|
------------16--------------------------14-L---16p-14h-1-|
---------------------------------------------------------|
---------------------------------------------------------|


   T      T      T      T      T         T
   S   S  S   S  S   S  S   S  S  S S S  S  S S S
------------------------------17p-2---2-15p-2---2-|
------------------------------------2---------2---|
--19p-16-18p-14-19p-16-18p-14---------------------|
--------------------------------------------------|
--------------------------------------------------|
--------------------------------------------------|


   T           T
                            |------6------|
   S  S  S  S  S   S  S  S  Q      Q      Q
--17p-9p-7h-9-17p-14----14-21b----21b----21b----|
---------------------14-------------------------|
------------------------------------------------|
------------------------------------------------|
------------------------------------------------|
------------------------------------------------|


          |---3---|   |---3---|
   Q      E   E   E   E   E   E   Q
--21b-----L-----------------------------|-------|
---------21-----------------------------|-------|
-------------21--18---------------------|-------|
---------------------18-----------------|-------|
-------------------------19--17--16S----|-------|
----------------------------------------|-------|


-------|-------|-------|-------|-------|-------|
-------|-------|-------|-------|-------|-------|
-------|-------|-------|-------|-------|-------|
-------|-------|-------|-------|-------|-------|
-------|-------|-------|-------|-------|-------|
-------|-------|-------|-------|-------|-------|


  H        E   Q     E
------------------------|
--------------17----20--|
------------------------|
------------------------|
------------------------|
------------------------|


   |---3---|
   S   S   S   E   E   E   E   Q     S  S
------------------------------------------|
--19h-20p-19p-17--20--19--17--17----17----|
---------------------------------------20-|
------------------------------------------|
------------------------------------------|
------------------------------------------|


   S  S  S   S  S  S  S  S  S   S  Q     E
------------------17------------------------|
--17-19-20p-19-20----20-19-20p-19-17----20--|
--------------------------------------------|
--------------------------------------------|
--------------------------------------------|
--------------------------------------------|


   |---3---|
   S   S   S   E   E   E   E   Q     S  S
------------------------------------------|
--19h-20p-19p-17--20--19--17--17----17-19-|
------------------------------------------|
------------------------------------------|
------------------------------------------|
------------------------------------------|


   S   S  S  S  H         E   E
------------17-17b--------L-------|
--20p-19-20-----------------------|
----------------------------------|
-----------------------------16~--|
----------------------------------|
----------------------------------|


  Q     E   E   Q    E   S  S
------------------------------|
------------------------------|
--L--------15--16----L--17-16-|
--L----17---------------------|
------------------------------|
------------------------------|


   |---3---|
   E   E   E   E   E   S   S   S   S   S   S   S   S
------------------------------------------------------|
------14----------------------------------------------|
--15------15--14--15--16p-15h-16p-15S-14h-15p-14h-15S-|
------------------------------------------------------|
------------------------------------------------------|
------------------------------------------------------|


   |---6---|  |---6---|  |-----5-----|  |-----5-----|  |
   S   S   S  S   S   S  S  S  S  S  S  S  S  S  S  S  S
---------------------------------------------12----------|
------------------------------------12-14-15----15-14-12-|
--12h-14p-12-16p-14p-12----12-14-15----------------------|
------------------------16-------------------------------|
---------------------------------------------------------|
---------------------------------------------------------|


                                   W
   |---6---|  |---6---|  |--6--|   6
   S   S   S  S   S   S  S  S  S   E.  Q.      Q     E
---------------------------12---------------------------|
--14p-13p-12------------12--------------------17----20--|
-------------14p-13h-14-------14h-14---L----------------|
--------------------------------------------------------|
--------------------------------------------------------|
--------------------------------------------------------|


   |---3---|
   S   S   S   E   E   E   E   Q     S  S
------------------------------------------|
--19h-20p-19p-17--20--19--17--17----17----|
---------------------------------------20-|
------------------------------------------|
------------------------------------------|
------------------------------------------|


   S  S  S   S  S  S  S  S  S   S  Q     E
------------------17------------------------|
--17-19-20p-19-20----20-19-20p-19-17----20--|
--------------------------------------------|
--------------------------------------------|
--------------------------------------------|
--------------------------------------------|


   |---3---|
   S   S   S   E   E   E   E   Q     S  S
------------------------------------------|
--19h-20p-19p-17--20--19--17--17----17-19-|
------------------------------------------|
------------------------------------------|
------------------------------------------|
------------------------------------------|


   S  S  S  S  Q.      S  S  S S S S
-----------17-17b------2p-0h-2-0-0-0-|
--20-19-20---------------------------|
-------------------------------------|
-------------------------------------|
-------------------------------------|
-------------------------------------|


  S S S S S S S S S S S S S S S S
--2-0-0-0-3-0-0-0-6-0-0-0-7-0-0-0-|
----------------------------------|
----------------------------------|
----------------------------------|
----------------------------------|
----------------------------------|


  S S S S  S S S S S S S S  S S S S
--9-0-0-0-10-0-0-0-9-0-0-0-10-0-0-0-|
------------------------------------|
------------------------------------|
------------------------------------|
------------------------------------|
------------------------------------|


   S S S S  S S S S  S S S S  S S S S
--12-0-0-0-14-0-0-0-15-0-0-0-14-0-0-0-|
--------------------------------------|
--------------------------------------|
--------------------------------------|
--------------------------------------|
--------------------------------------|


   W
   H.           E.   S
--21------------L------|
-----------------------|
-----------------------|
--------------------17-|
-----------------------|
-----------------------|


   S  S  S  S  S  S  S  S  S  S  S  S  S  S  S  S
--------------------------------------------------|
--------------------------------------------------|
-----------------------15-16-15-16-15-16-18-16-18-|
-----------------16-17----------------------------|
--19-17-16-17-19----------------------------------|
--------------------------------------------------|


   S  S  S  S  S  S  S  S  S  S  S  S  S  S  E
--------------------17----19-22-21-19-21-19------|
--------------17-19----20-------------------22b--|
--16-19-18-19------------------------------------|
-------------------------------------------------|
-------------------------------------------------|
-------------------------------------------------|


                  |-----5-----|  |---3---|
  Q     E.     S  S  S  S  S  S  E   E   E
-----------------------19-------------------|
--L-----------------19----19------------19--|
-----------------19----------19-----19------|
-------(9)S---21----------------21----------|
--------------------------------------------|
--------------------------------------------|


   |---3---|   |---3---|
   E   E   E   E   E   E   H
--17--14-----------------------------|---------|
----------15-------------------------|---------|
--------------14---------------------|---------|
------------------16--14-------------|---------|
--------------------------17~--------|---------|
-------------------------------------|---------|


---------|---------|---------|
---------|---------|---------|
---------|---------|---------|
---------|---------|---------|
---------|---------|---------|
---------|---------|---------|


  H         S  S  S  S  S  S  S  S
-----------------------------------|
-----------------------------------|
-----------13-11-------------------|
-----------------12-11-------12-11-|
-----------------------12-11-------|
-----------------------------------|


   S  S  S  S   S   S  S  S  Q      Q
------------------------------------------|-----------|
------------------------------------------|-----------|
------------------------------------------|-----------|
-----11-12-11h-12p-11---------------------|-----------|
--12------------------12-11---------------|-----------|
----------------------------14S----(9)----|-----------|


                          ^
                          W
-----------|-----------|-------------------|
-----------|-----------|-------------------|
-----------|-----------|--7----------------|
-----------|-----------|--7----------------|
-----------|-----------|--5----------------|
-----------|-----------|-------------------|


           ^      ^
  H        Q.     E     W
---------------------|-------------------|
---------------------|-------------------|
--L--------4---------|-------------------|
--L--------4------2--|--L----------------|
--L--------2------2--|--L----------------|
------------------0--|--L----------------|


  W
-------------------|-----------|-----------|-----------|
-------------------|-----------|-----------|-----------|
-------------------|-----------|-----------|-----------|
--L----------------|-----------|-----------|-----------|
--L----------------|-----------|-----------|-----------|
--L----------------|-----------|-----------|-----------|


                          ^
  H        E  E  E  E     W
-----------------------|-------------------|
-----------------------|-------------------|
-----------------------|--7----------------|
--------------4--4--4--|--7----------------|
--------------4--4--4--|--5----------------|
--------------2--2--2--|-------------------|


           ^      ^
  H        Q.     E     W
---------------------|-------------------|
---------------------|-------------------|
--L--------4---------|-------------------|
--L--------4------2--|--L----------------|
--L--------2------2--|--L----------------|
------------------0--|--L----------------|


  W                                           4x
-------------------||------------|------------||
-------------------||------------|------------||
-------------------||*-----------|-----------*||
--L----------------||*-----------|-----------*||
--L----------------||------------|------------||
--L----------------||------------|------------||


-----------|-----------|-----------|-----------|-------|
-----------|-----------|-----------|-----------|-------|
-----------|-----------|-----------|-----------|-------|
-----------|-----------|-----------|-----------|-------|
-----------|-----------|-----------|-----------|-------|
-----------|-----------|-----------|-----------|-------|


     S  S  S   S   S   S   S  S  S  S  S   S   S   S   S
|---19--------------------------19-----------------------|
|------20--------------------20----20--------------------|
|*--------19p-17p-16h-17h-19----------19p-17p-16h-17h-19-|
|*-------------------------------------------------------|
|--------------------------------------------------------|
|--------------------------------------------------------|


   S  S  S   S   S   S   S  S  S  S  S   S   S   S   S
--19--------------------------19-------------------------|
-----20--------------------20----20--------------------2-|
--------19p-17p-16h-17h-19----------19p-17p-16h-17h-19---|
---------------------------------------------------------|
---------------------------------------------------------|
---------------------------------------------------------|


   S  S  S   S   S   S   S  S  S  S  S   S   S   S   S
--19--------------------------19-------------------------|
-----20--------------------20----20--------------------2-|
--------19p-17p-16h-17h-19----------19p-17p-16h-17h-19---|
---------------------------------------------------------|
---------------------------------------------------------|
---------------------------------------------------------|


   S  S  S   S   S   S   S  S  S  S  S   S   S   S   S
--19--------------------------19-------------------------|
-----20--------------------20----20--------------------2-|
--------19p-17p-16h-17h-19----------19p-17p-16h-17h-19---|
---------------------------------------------------------|
---------------------------------------------------------|
---------------------------------------------------------|


   W                    W
---------------------|-------------------||
---------------------|-------------------||
--20~----------------|--L----------------||
---------------------|-------------------||
---------------------|-------------------||
---------------------|-------------------||

Duration Legend
---------------
W - whole
H - half
Q - quarter
E - 8th
S - 16th
T - 32nd
X - 64th
. - note dotted
|-n-|  - n-tuplets

Tablature Legend
----------------
L - tied note
x - dead note
g - grace note
(n) - ghost note
> - accentuded note
NH - natural harmonic
AH - artificial harmonic
TH - tapped harmonic
SH - semi harmonic
PH - pitch harmonic
h - hammer on
p - pull off
b - bend
br - bendRelease
pb - preBend
pbr - preBendRelease
brb - bendReleaseBend
\n/ - tremolo bar dip
\n - tremolo bar dive
-/n - tremolo bar Release up
/n\ - tremolo bar inverted dip
/n - tremolo bar return
-\n - tremolo bar Release down
S - shift slide
s - legato slide
/ -  slide into from below or out of upwards
\ -  slide into from above or out of downwards
~ - vibrato
W - wide vibrato
tr - trill
TP - tremolo picking
T - tapping
S - slap
P - pop
< - fade in
^ - brush up
v - brush down
comments
We did not receive enough feedback on this tab! Please rate:
1 2 3 4 5
I want to post or [tab]
guest
You may want to rate the tab now too:
select rating
Please do not post tabs as comments. Select "correction" instead!