Oops, an error
Loading. Please wait.

Aint No Rest For The Wicked Tab

ver6
ver6
More versions @911Tabs.com
3,904 views 9 this week
no commentswrite comment
1 2 3 4 5
please rate
Autoscroll
+/-
esc
set tempo
stop
Contributor
WARNING: You are trying to view
                                    content from Ultimate-Guitar.com
                                    in an unauthorized application,
                                    which is prohibited.

                                    Please use an official Ultimate
                                    Guitar Tabs application for iPhone,
                                    iPad or Android to access legitimate
                                    chords, guitar, bass, and drum tabs
                                    from Ultimate-Guitar.com database.

                                    Type "ultimate guitar tabs" in Apple
                                    App Store's or Android Market's
                                    search to find the application.
Really easy song to play lyrics are at the bottom if you want them this is
 one of the easiest ways to do them this is in standard tuning or if you dont 
know what that means it means(from the thick strings to the thin strings) 
EADGBE
||||||


 





E|----------------------------------------------------------|
B|--0303/50------0303/50--3/5-5-----0303/50--030----030-030-|
G|--0303/50------0303/50--3/5-5-----0303/50--030----030-030-|
D|--0303/50------0303/50--3/5-5-----0303/50--030----030-030-|
A|--5151/35------5151/35--1/5-3-----5151/35--515----515-515-|
E|--3-3---3------3-3---3------------3-3---3--3-3----3-3-3-3-|

Verse: (two times)
E|-------------------------------------------------------|
B|-00-xxxxxx-33-xxxxxx-55-xxxxxx-33--xx------------------|
G|-00-xxxxxx-33-xxxxxx-55-xxxxxx-33--xx------------------|
D|-00-xxxxxx-33-xxxxxx-55-xxxxxx-33--xx--33--xx----------|
A|-55-xxxxxx-11-xxxxxx-33-xxxxxx-11--xx--11--xx----------|
E|-33------------------------------------11--xx----------|

Verse or pre chorus:
E|-----------------------------------------------------|
B|-00-xxxxxx-33-xxxxxx-55-xxxxxx---030----030-030------|
G|-00-xxxxxx-33-xxxxxx-55-xxxxxx---030----030-030------|
D|-00-xxxxxx-33-xxxxxx-55-xxxxxx---030----030-030------|
A|-55-xxxxxx-11-xxxxxx-33-xxxxxx---515----515-515------|
E|-33------------------------------3-3----3-3-3-3------|

Chorus: (seven times)       Play after the Chorus
E|--------------------------------17----------------|
B|--3/12----3/555-------3/12---12/15/16-16\12-12----|
G|--3/12----3/555-------3/12------------------------|
D|--3/12----3/555-------3/12------------------------|
A|--1/10----1/333-------1/10------------------------|
E|--------------------------------------------------|

Verse: (three times) 
E|-------------------------------------------------------|
B|-00-xxxxxx-33-xxxxxx-55-xxxxxx-33--xx------------------|
G|-00-xxxxxx-33-xxxxxx-55-xxxxxx-33--xx------------------|
D|-00-xxxxxx-33-xxxxxx-55-xxxxxx-33--xx--33--xx----------|
A|-55-xxxxxx-11-xxxxxx-33-xxxxxx-11--xx--11--xx----------|
E|-33------------------------------------11--xx----------|
Verse or pre chorus:
E|-----------------------------------------------------|
B|-00-xxxxxx-33-xxxxxx-55-xxxxxx---030----030-030------|
G|-00-xxxxxx-33-xxxxxx-55-xxxxxx---030----030-030------|
D|-00-xxxxxx-33-xxxxxx-55-xxxxxx---030----030-030------|
A|-55-xxxxxx-11-xxxxxx-33-xxxxxx---515----515-515------|
E|-33------------------------------3-3----3-3-3-3------|

Chorus: (seven times)
E|-----------------|
B|--3/12----3/555--|
G|--3/12----3/555--|
D|--3/12----3/555--|
A|--1/10----1/333--|
E|-----------------|

Then play this after chorus segment

E|------------|
B|--3/12\-----|
G|--3/12\-----|
D|--3/12\-----|
A|--1/10\-----|
E|------------|

Solo: (three times)        2nd part of solo
E|-----------------------| |-------------------------------|
B|-5/11------------------| |----5/11-----------11----------|
G|-----10--12------------| |----------10--12-------10--12--|
D|--------------8\3------| |-------------------------------|
A|-----------------------| |-------------------------------|
E|-----------------------| |-------------------------------|

Verse: (3 times)
E|-------------------------------------------------------|
B|-00-xxxxxx-33-xxxxxx-55-xxxxxx-33--xx------------------|
G|-00-xxxxxx-33-xxxxxx-55-xxxxxx-33--xx------------------|
D|-00-xxxxxx-33-xxxxxx-55-xxxxxx-33--xx--33--xx----------|
A|-55-xxxxxx-11-xxxxxx-33-xxxxxx-11--xx--11--xx----------|
E|-33------------------------------------11--xx----------|


Chorus: (7 times)

E|-----------------|
B|--3/12----3/555--|
G|--3/12----3/555--|
D|--3/12----3/555--|
A|--1/10----1/333--|
E|-----------------|

lyrics(if you want them)
I was walking down the street,
When out the corner of my eye
I saw a pretty little thing approaching me.
She said "I've never seen a man
Who looks so all alone,
Could you use a little company?

If you can pay the right price
Your evening will be nice,
And you can go and send me on my way."
I said "You're such a sweet young thing
Why you do this to yourself?"
She looked at me and this is what she said:

"Oh, there ain't no rest for the wicked,
Money don't grow on trees.
I got bills to pay,
I got mouths to feed,
There ain't nothing in this world for free.
I know I can't slow down,
I can't hold back,
Though you know, I wish I could.
No there ain't no rest for the wicked,
Until we close our eyes for good".

Not even fifteen minutes later
I'm still walking down the street,
When I saw a shadow of a man creep out of sight.
And then he sweeps up from behind
And puts a gun up to my head,
He made it clear he wasn't looking for a fight.

He said "Give me all you've got
I want your money not your life,
But if you try to make a move I won't think twice."
I go like "You can have my cash
But first you know I got to ask
What made you want to live this kind of life?"

He said "There ain't no rest for the wicked,
Money don't grow on trees.
I got bills to pay,
I got mouths to feed,
There ain't nothing in this world for free.
I know I can't slow down,
I can't hold back,
Though you know, I wish I could.
No there ain't no rest for the wicked,
Until we close our eyes for good".

Now a couple hours have passed
And I was sitting at my house,
The day was winding down and coming to an end.
So I turned on the TV
And flipped it over to the news,
And what I saw I almost couldn't comprehend.

I saw a preacher man in cuffs he'd taken money from the church,
He stuffed his bank account with righteous dollar bills.
But even still I can't say much
Because I know we're all the same,
oh yes we all seek out to satisfy those thrills

"Oh, there ain't no rest for the wicked,
Money don't grow on trees.
We got bills to pay,
We got mouths to feed,
There ain't nothing in this world for free.
I know we can't slow down,
We can't hold back,
Though you know, we wish we could.
No there ain't no rest for the wicked,
Until we close our eyes for good"
comments
We did not receive enough feedback on this tab! Please rate:
1 2 3 4 5
I want to post or [tab]
guest
You may want to rate the tab now too:
select rating
Please do not post tabs as comments. Select "correction" instead!