Oops, an error
Loading. Please wait.

Right Before My Eyes Tab

1,719 views 24 this week
no commentswrite comment
1 2 3 4 5
accurate
x 1
Autoscroll
+/-
esc
set tempo
stop
Contributor
Difficulty
Hey! There's an official Ultimate Guitar app which is ideal
for learning songs when you're away from computer. Get the app
WARNING: You are trying to view
                                    content from Ultimate-Guitar.com
                                    in an unauthorized application,
                                    which is prohibited.

                                    Please use an official Ultimate
                                    Guitar Tabs application for iPhone,
                                    iPad or Android to access legitimate
                                    chords, guitar, bass, and drum tabs
                                    from Ultimate-Guitar.com database.

                                    Type "ultimate guitar tabs" in Apple
                                    App Store's or Android Market's
                                    search to find the application.
#----------------------------------PLEASE NOTE--------------------------------#
#This file is the author's own work and represents their interpretation of the#
#song. You may only use this file for private study, scholarship, or research.#
#-----------------------------------------------------------------------------#
#-- File created with Instab - http://www.pconline.com/~smcarey/instab.html --#
#-----------------------------------------------------------------------------#

Author/Artist: Cage The Elephant
Title: Right Before My Eyes

P Pluck
P.M. Palm Mute
A Arpeggio

Strum at 22nd fret.
Change to Type A Tuning due to 4/4 chord progression.

Verse
Key: (G + A#)
Chorus
Key: (G + G#)


Tuning (eb A D G B E)
Album Tuning (c g c f a d), Up ~ 25.1%, (c, c) Down ~ 15.1%

Live Drop C# Tuning, Up ~ 25.1%
Key: (D + C#)



----|---------|-3------------------|
----|---------|-4------------------|
----|---------|--------------------|
----|-14/17---|--------------------|
----|---------|-18---17---15---13--|
----|---------|-19---16---16---14--|
       

  Intro/Verse 



----|----------------------|
----|-8----6---------------|
----|-8----7---8---8---7---|
----|-8----8---10--10--8---|
----|-10---8---10--11--8---|
----|----------------------|
        

  Chorus Arpeggios




----|---------------|--|-----------|--|
----|-4-------------|--|-6---------|--|
----|-x-------------|--|-x---------|--|
----|-6------10-----|--|-8-----10--|--|
----|-6------10-----|--|-8-----10--|--|
----|---------------|--|-----------|--|
        

  Bridge Arpeggios




----|--------------------------|--|-------|
----|--------------------------|--|--6----|
----|--------------------------|--|--x----|
----|--------------------------|--|--8----|
----|-13----8----10---6----8---|--|--8----|
----|-12----7----9----5----7---|--|-------|
       

  Outro Chorus                       A
comments
We did not receive enough feedback on this tab! Please rate:
print report bad tab
1 2 3 4 5
I want to post or [tab]
guest
You may want to rate the tab now too:
select rating
Please do not post tabs as comments. Select "correction" instead!