Oops, an error
Loading. Please wait.

Zen Garden Tab

1,965 views 9 this week
no commentswrite comment
1 2 3 4 5
excellent!
x 2
Autoscroll
+/-
esc
set tempo
stop
Contributor
Hey! There's an official Ultimate Guitar app which is ideal
for learning songs when you're away from computer. Get the app
WARNING: You are trying to view
                                    content from Ultimate-Guitar.com
                                    in an unauthorized application,
                                    which is prohibited.

                                    Please use an official Ultimate
                                    Guitar Tabs application for iPhone,
                                    iPad or Android to access legitimate
                                    chords, guitar, bass, and drum tabs
                                    from Ultimate-Guitar.com database.

                                    Type "ultimate guitar tabs" in Apple
                                    App Store's or Android Market's
                                    search to find the application.
~~~~~~~ This is my first ever tab so its a little basic  ~~~~~~~~~~~

It took me a good hour or so to work it out, tab it out ,and do the lyrics (the 
lyrics were the easy part). 




INTRO/VERSE
             
e||------3-x-------6-x--------3-x----------6------------|
B||------3-x-------6-x--------3-x----------6------------|
G||------0-x-------0-x--------0-x----------0------------|
D||------0-x-------0-x--------0-x----------0------------|
A||------2-x-------5-x-----5--2-x----------5-6h5--------|
E||----3--------0h6---------3---------0h6---------------|

e||------3-x-------6-x--------6-x-----------------------|
B||------3-x-------6-x--------6-x------8---6------------|
G||------0-x-------0-x--------0-x------0---0------------|
D||------0-x-------0-x--------5-x-----------------------|
A||------2-x-------5-x----5h6-6-x---8---8---6-----------|
E||----3--------0h6-------------------------------------|



PRECHORUS ("AND HES NOT THERE ANYMORE")

         strum             *pluck*
e||-----------------------------------------------------|
B||------8-------------------8--------------------------|
G||------8-------------------8--------------------------|
D||------7----------------------------------------------|
A||------8----------------------------------------------|
E||---------------------8-------------------------------|



BREAKDOWN

strum these chords 
                             
e||------3------------1-----------1---------------------|
B||------3------------0-----------0---------------------|
G||------0------------0-----------0---------------------|
D||------0------------0-----------0---------------------|
A||------2------------3-----------2---------------------|
E||------3------------1-----------0---------------------|




LYRICS


In another life I was the beautiful sky 
and my world a perfect circle of sun, sand and water

And I was happy there tranquillity was in the air 
until the sand began to drift and it started to rain

What an unthinkable sin i let him in i let him in
and in another life he was a hurricane

He tried to swallow me into his raging angry sea 
but little did he know the power of the infinite me



And hes not there any more



Don't try to sell me that story of your courage and glory
I have heard it all before but its an allegory 

You left me feeling mislead and beheaded 
by the newfound king of this pretended interlectual thing#

Called love or something
I know one thing nothings ever quite what it seems

Your lovely pictures just a frame or ficticious araingement
of the wishes you made on the stars in my sky



But baby i dont care anymore



Your skin is all the deeper 
that the tangent of your intellect swims

And the brimn of your heart on your mouth where you lips will beg
steal or borrow their sin from me 

You stole my serenity you dirty little thief
you were the sun and the earth to me but now i see that in



The scheme of things the bigger plan
maybe you should understand 

You're just a grain of sand 
in my zen garden

Id wreck you under the rocks everyday 
and in a beautifl way it takes all my worries away



Why are you standing here i shouldnt have to say any more





~~~~~ Hope this helped :) ~~~~~~~~~~
comments
We did not receive enough feedback on this tab! Please rate:
print report bad tab
1 2 3 4 5
I want to post or [tab]
guest
You may want to rate the tab now too:
select rating
Please do not post tabs as comments. Select "correction" instead!