Oops, an error
Loading. Please wait.

Clouds Of Dementia Tab

156 views 3 this week
1 commentread comment
1 2 3 4 5
excellent!
x 3
Autoscroll
+/-
esc
set tempo
stop
Contributor
Hey! There's an official Ultimate Guitar app which is ideal
for learning songs when you're away from computer. Get the app
WARNING: You are trying to view
                                    content from Ultimate-Guitar.com
                                    in an unauthorized application,
                                    which is prohibited.

                                    Please use an official Ultimate
                                    Guitar Tabs application for iPhone,
                                    iPad or Android to access legitimate
                                    chords, guitar, bass, and drum tabs
                                    from Ultimate-Guitar.com database.

                                    Type "ultimate guitar tabs" in Apple
                                    App Store's or Android Market's
                                    search to find the application.
-------------------------------------------------------------------------------
                            -=[Clouds of Dementia - Candlemass]=-
-------------------------------------------------------------------------------
Song: Clouds of Dementia
Band: Candlemass
Album: Death, Magic, Doom
Tabbed by: TrollFaceJesus
E-mail: trollfacejesus@gmail.com


Hey everyone, this is my tab for this song, and it all seems pretty close to me. 
I tabbed out all of the rhythm parts, but didn't tab out the solo. Hopefully 
everything here is accurate, and that you guys find it helpful. If you have any 
comments, questions, or mistakes to point out, please feel free to leave a 
message here, or send me an email! :D


Tuning: C#

Riff 1 (Starts at 0:00)
|----------------------------------------------|
|----------------------------------------------|
|----------------------------------------------| x4
|---------------------3---------------------3--|
|----------3--3-2--0--3-----------3--3-2--2----|
|--2--0h2-------------1---2--0h2---------------|


Riff 2
|-------------------------------------------------|
|-------------------------------------------------|
|-------------------------------------------------| x2
|------------------------------------------6---4--|
|--0-----1---0--0------1---0--0-----1---0--6---4--|
|------1------------1-------------1--------4---2--|


Riff 1 x 2


Riff 3
|--------------------------------------------------------|
|--------------------------------------------------------|
|--------------------------------------------------------| x4
|--2--------------------------2--------------------------|
|--2---------2-1--------------2---------2-1-2-4-2-1h2p1--|
|--0--2--3------3-2-3-2h3p2---0--2--3--------------------|


Riff 4 (Guitar 1)
|-------------------------------------------------|
|-------------------------------------------------|
|-------------------------------------------------| x2
|-----0----------------------0-------------5-4-5--|
|--2----2-----------------2----2------------------|
|---------3---3-2---2-1----------3---3-2----------|

Riff 4 (Guitar 2)
|---------------------------------------------------|
|---------------------------------------------------|
|-----7------------------------7--------------------| x2
|--9----9-9---9-8---8-7---7-9----9-9---9-8---5-4-5--|
|---------------------------------------------------|
|---------------------------------------------------|


Riff 5
|-----------------------------|
|-----------------------------|
|-----------------------------| x1
|--8---8---8-----8---8---8----|
|----7---7---7-----7---7---7--|
|-----------------------------|


Riff 6
|------------------|
|------------------|
|--7--------7------| x1
|--7---8----7---8--|
|--5---8----5---8--|
|------6--------6--|


Riff 5 x 1

Riff 6 x 1


Riff 7
|-----------------------------|
|-----------------------------|
|-----------------------------| x1
|-----------------------------|
|-----------------------------|
|--6-0-6-0-6-0---6-0-6-0-6-0--|


Riff 6 x 1

Riff 7 x 1

Riff 6 x 1


Riff 8
|-----------------------------|
|-----------------------------|
|-----------------------------| x1
|-----------------------------|
|--5---5---5-----5---5---5----|
|----4---4---4-----4---4---4--|


Riff 9
|----------------------|
|----------------------|
|--11---------11-------| x1
|--11---10----11---10--|
|--9----10----9----10--|
|-------8----------8---|


Riff 8 x 1

Riff 9 x 1


Riff 10
|---------------------------------|
|---------------------------------|
|---------------------------------| x2
|------------------------------3--|
|------3---2-----------3---2------|
|--2-----------1---2--------------|


Riff 1 x 2

Then play Riff 3 until the end.


And that's just about it!


************************************

| /   slide up
| \   slide down
| h   hammer-on
| p   pull-off
| ~   vibrato
| +   harmonic
| x   Mute note
| b   Bend
| pb  Pre-bend
| br  Bend release
| pbr Pre-bend release
| brb Bend release bend

************************************
comments
We did not receive enough feedback on this tab! Please rate:
print report bad tab
1 2 3 4 5
1 comment total.
0 reply
BadSongBlues wrote on May 3 2014, 10:39 am

Good tab, but I think guitar 2 in the harmony should be
Riff 4 (Guitar 2)
|---------------------------------------------------|
|-----7------------------------7--------------------|
|--7----7-------------------7----7-----------7-6-7--| x2
|---------9---9-8---8-7---7--------9---9-8----------|
|---------------------------------------------------|
|---------------------------------------------------|

with a harmonic on the last note the second time.

I want to post or [tab]
guest
You may want to rate the tab now too:
select rating
Please do not post tabs as comments. Select "correction" instead!