Oops, an error
Loading. Please wait.

Waterwitch Tab

351 views 1 this week
1 commentread comment
1 2 3 4 5
please rate
Autoscroll
+/-
esc
set tempo
stop
Contributor
Hey! There's an official Ultimate Guitar app which is ideal
for learning songs when you're away from computer. Get the app
WARNING: You are trying to view
                                    content from Ultimate-Guitar.com
                                    in an unauthorized application,
                                    which is prohibited.

                                    Please use an official Ultimate
                                    Guitar Tabs application for iPhone,
                                    iPad or Android to access legitimate
                                    chords, guitar, bass, and drum tabs
                                    from Ultimate-Guitar.com database.

                                    Type "ultimate guitar tabs" in Apple
                                    App Store's or Android Market's
                                    search to find the application.
-------------------------------------------------------------------------------
                          -=[Waterwitch - Candlemass]=-
-------------------------------------------------------------------------------
Song: Waterwitch
Band: Candlemass
Album: Psalms for the Dead
Tabbed by: TrollFaceJesus
E-mail: trollfacejesus@gmail.com


Hey everyone, this is my tab for this song. It sounds pretty accurate to me, 
and hopefully you guys find it helpful! If you have any questions or comments, 
please feel free to leave a message! :D


Tuning: C#


Riff 1 (Starts at 0:00)
|--------------------------------------------------|
|--------------------------------------------------|
|--------------------------------------------------| x4
|--------------------------------------------------|
|------------------10--9---------------------------|
|--0---8-0-7---0-----0----0---8-0-7---0--3--2--1---|

[Note: In this song, one guitar plays this riff with wah and 
distortion, while the other plays the same notes, but with 
chords and only distortion. You can change this in any way 
that you want to get the sound you prefer, of course.]


Bass Break (Starting at 0:42)
|-------------|
|-------------| x2
|-------2--3--|
|--0----------|


Riff 2 (Starting at 0:51)
|--------------|
|-------------|
|-------------|
|-------------| x6
|-------2--3--|
|--0----------|


Riff 3 (Starting at 1:15)
|---------------------------------------|
|---------------------------------------|
|---------------------------------------| x2
|-----------------------5------------2--|
|--2--3---7---6-----2--------3---2---2--|
|--0--1-----8---7---0------2---1-----0--|


Bass Break x 2

Riff 2 x 6

Riff 3 x 4


Riff 4 (Starting at 2:31)
|---------------------------------------|
|---------------------------------------|
|--5---4----7---9-----------------------| x1
|--5---4----7---9------------------2----|
|--3---2----5---7------5---3---2---2----|
|--------------------3---2---1-----0----|


Riff 5 (Starting at 2:42)
|--------------------------------------------------------|
|--------------------------------------------------------|
|--2--2-------------------------2--2---------------------| x4
|--2--2---3---3--2---2--1---1---2--2---3---3--2---2--1---|
|--0--0-----3------2------1-----0--0-----3------2--------|
|--------------------------------------------------------|


Riff 6 (Starting at 3:16)
|-------------------------------|
|-------------------------------|
|-------------------------------| x4
|--4--4---7-7---6-6--6----------|
|--4--4---7-7---6-6--6---5-0-5--|
|--2--2---5-5---4-4--4----------|


Riff 1 x 4

Bass Break x 2

Riff 2 x 6


Riff 7 (Starting at 5:02)
|-------------------------------------|
|-------------------------------------|
|-------------------------------------| x8
|--2--2--------------2--2-------2tr3--|
|--2--2-----2--------2--2-----2-------|
|--0--0---3---2--1---0--0---3---------|


Then just play Riff 3 until the end of the song.

And that's it! Hopefully you guys have found this tab helpful.


If you guys have questions, comments, or corrections, don't
hesitate to leave a message! :D


************************************

| /   slide up
| \   slide down
| h   hammer-on
| p   pull-off
| ~   vibrato
| +   harmonic
| x   Mute note
| b   Bend
| pb  Pre-bend
| br  Bend release
| pbr Pre-bend release
| brb Bend release bend

************************************
comments
We did not receive enough feedback on this tab! Please rate:
print report bad tab
1 2 3 4 5
1 comment total.
0 reply
TrollFaceJesus wrote on January 22 2013, 10:33 pm

Hey guys, I just wanted to point out a HUGE mistake that I made with this tab. During "Riff 6", I made a typing error, and the real tab should be like this:

|-------------------------------|
|-------------------------------|
|---------------6-6--6----------| x4
|--4--4---7-7---6-6--6----------|
|--4--4---7-7---4-4--4---5-0-5--|
|--2--2---5-5-------------------|/tab]

I want to post or [tab]
guest
You may want to rate the tab now too:
select rating
Please do not post tabs as comments. Select "correction" instead!