Oops, an error
Loading. Please wait.

A Skull Full Of Maggots Bass Tab

2,839 views 15 this week
8 commentsread comments
1 2 3 4 5
worth learning
x 2
Autoscroll
+/-
esc
set tempo
stop
Contributor
WARNING: You are trying to view
                                    content from Ultimate-Guitar.com
                                    in an unauthorized application,
                                    which is prohibited.

                                    Please use an official Ultimate
                                    Guitar Tabs application for iPhone,
                                    iPad or Android to access legitimate
                                    chords, guitar, bass, and drum tabs
                                    from Ultimate-Guitar.com database.

                                    Type "ultimate guitar tabs" in Apple
                                    App Store's or Android Market's
                                    search to find the application.
F#||------------------|------------------|------------------|------------------|
C#||------------------|------------------|------------------|------------------|
G#||------------------|------------------|------------------|------------------|
D#||------------------|------------------|------------------|------------------|


                                                      
--------------------------|--------------------------|
--------------------------|--------------------------|
--------------------------|--------------------------|
--5--0--4--0--3--0--2--0--|--4--0--3--0--2--0--1--0--|


                                                      
--------------------------|--------------------------|
--------------------------|--------------------------|
--------------------------|--------------------------|
--5--0--4--0--3--0--2--0--|--4--0--3--0--2--0--1--0--|


                                                        3x
|---------------------------|---------------------------||
|*--------------------------|--------------------------*||
|*--------------------------|--------------------------*||
|---5--0--4--0--3--0--2--0--|--4--0--3--0--2--0--1--0---||


                                                                               
---------------------------------------|--------------------------------------|
*--------------------------------------|--------------------------------------|
*--------------------------------------|--------------------------------------|
---5--5--5--5--5--5--5--5--5--5--5--5--|--6--6--6--6--6--6--6--6--6--6--6--6--|


                                                                 
--------------------------------------|------------------------||
--------------------------------------|---------------7--8----*||
--------------------------------------|-------6--7------------*||
--5--5--5--5--5--5--5--5--5--5--5--5--|--6---------------------||


                                                       3x                    
---------------------------|---------------------------||-------------------|
*--------------------------|--------------------------*||*------------------|
*--------------------------|--------------------------*||*------------------|
---5--0--4--0--3--0--2--0--|--4--0--3--0--2--0--1--0---||-------------------|


                                                               
------------------|------------------|-----------------------||
------------------|------------------|----------------------*||
------------------|------------------|----------------------*||
------------------|------------------|--5----4----3----2-----||


                                                             
-------------------------------|----------------------------|
*--7-------------7-------------|--7-------------8--8--8--8--|
*-------0--0--0-------0--0--0--|-------0--0--0--------------|
-------------------------------|----------------------------|


                                                          4x
------------------------------|---------------------------||
--7-------------7-------------|--------------------------*||
-------0--0--0-------0--0--0--|--------------------------*||
------------------------------|--5--0--4--0--3--0--2--0---||


                                                         
-------------------------------|------------------------|
*--5-------------5-------------|--5---------------------|
*-------0--0--0-------0--0--0--|------------------------|
-------------------------------|---------5--3--3--3--3--|


                                                      
--------------------------|-------------------------||
--5-------------5---------|------------------------*||
-------0--0--0-------0----|------------------------*||
--------------------------|--5----3----8--8--8--8---||


                                                             
-------------------------------|----------------------------|
*--7-------------7-------------|--7-------------8--8--8--8--|
*-------0--0--0-------0--0--0--|-------0--0--0--------------|
-------------------------------|----------------------------|


                                                            
------------------------------|---------------------------||
--7-------------7-------------|--------------------------*||
-------0--0--0-------0--0--0--|--------------------------*||
------------------------------|--5--0--4--0--3--0--2--0---||


                                                        
--------------------------||---------------------------|
--------------------------||*--------------------------|
--------------------------||*--------------------------|
--4--0--3--0--2--0--1--0--||---5--0--4--0--3--0--2--0--|


                                                                            
---------------------------||--------------------------|-------------------|
--------------------------*||--------------------------|-------------------|
--------------------------*||--------------------------|-------------------|
--4--0--3--0--2--0--1--0---||--5--0--4--0--3--0--2--0--|--4--0--3--0--2----|


                                                                             
-------------------|------------------|-----------------|-------------------|
-------------------|------------------|-----------------|-------------------|
-------------------|------------------|-----------------|-------------------|
--1----------------|------------------|--4----3----2----|--0----------------|


                                                                            
------------------|-----------------|-------------------|------------------|
------------------|-----------------|-------------------|------------------|
------------------|-----------------|-------------------|------------------|
------------------|--4----3----2----|--1----------------|------------------|


                                                       
|------------------|----------------------------------|
|*-----------------|----------------------------------|
|*-----------------|----------------------------------|
|---4----3----2----|--0-0-0-0-0-0-0-0-0-0-0-0-0-0-0-0-|


                                                     
----------------------------------|-----------------|
----------------------------------|-----------------|
----------------------------------|-----------------|
--0-0-0-0-0-0-0-0-0-0-0-0-0-0-0-0-|--4----3----2----|


                                                                      3x
----------------------------------|-----------------------------------||
----------------------------------|----------------------------------*||
----------------------------------|----------------------------------*||
--0-0-0-0-0-0-0-0-0-0-0-0-0-0-0-0-|--0-0-0-0-0-0-0-0-0-0-0-0-0-0-0-0--||


                                                                      
-----------------|---------------|-----------------|-----------------|
-----------------|---------------|-----------------|-----------------|
-----------------|---------------|--2--------------|--2--------------|
--4----3----2----|--0------------|--0----0----0----|--0----0----0----|


                                                                          
-----------------|-------------------|------||---------------------------|
-----------------|-------------------|------||*--------------------------|
--2--------------|--2----------------|------||*--------------------------|
--0----0----0----|--0----------------|------||---5--0--4--0--3--0--2--0--|


                                                                               
---------------------------||----------------------||-------------------------|
--------------------------*||----------------------||*------------------------|
--------------------------*||----------------------||*--7---------------------|
--4--0--3--0--2--0--1--0---||--6----6----6----6----||----------7--7--8--8--7--|


                                                                             3x
------------------------|------------------------|---------------------------||
------------------------|------------------------|--------------------------*||
--7---------------------|--7---------------------|--------------------------*||
---------7--7--8--8--7--|---------7--7--8--8--7--|--6--6--6--6--6--6--6--6---||


                     
-------------------||
-------------------||
--7----------------||
-------------------||
comments
We did not receive enough feedback on this tab! Please rate:
1 2 3 4 5
8 comments total. Showing first comments. show 3 bad comments
I want to post or [tab]
guest
You may want to rate the tab now too:
select rating
Please do not post tabs as comments. Select "correction" instead!