Oops, an error
Loading. Please wait.

Barbaric Bludgeonings Tab

999 views 3 this week
no commentswrite comment
1 2 3 4 5
excellent!
x 1
Autoscroll
+/-
esc
set tempo
stop
Difficulty
Tuning
advanced
A# F A# D# G C
Hey! There's an official Ultimate Guitar app which is ideal
for learning songs when you're away from computer. Get the app
WARNING: You are trying to view
                                    content from Ultimate-Guitar.com
                                    in an unauthorized application,
                                    which is prohibited.

                                    Please use an official Ultimate
                                    Guitar Tabs application for iPhone,
                                    iPad or Android to access legitimate
                                    chords, guitar, bass, and drum tabs
                                    from Ultimate-Guitar.com database.

                                    Type "ultimate guitar tabs" in Apple
                                    App Store's or Android Market's
                                    search to find the application.
Band: Cannibal Corpse
Album: Kill
Song: Barbaric Bludgeonings
Record Label: MetalBlade
Tuning: Bb Eb Ab Db F Bb
Tabber: ben chaffins
--------------------------------------------------------------|
--------------------------------------------------------------|
--------------------------------------------------------------|
-6-5-4-5-4---4---7-8-7-6---------------------3----------------|
-----------6---6-5-6-5-4-4*trill*5-2*trill*3-1-5-2-6-5h6p5h6--|
-----------------------------------------------3-0-4----------|
                 pm. . .                       . . .

-----------------------------------------------------|
-----------------------------------------------------|
-----------------------------------------------------|
-----------------------------------------------------|
-4p1----5p2----4p1-4p1----4p1----5p2----2h5p2-1h4p1--|
-----00-----00---------00-----00-----00--------------|
     pm     ..         ..     ..     ..

-----------------------------------------------------------------|
-----------------------------------------------------------------|
-----------------------------------------------------------------|
-----------------------------------------------------------------|
-4p1----5p2----4p1-4p1----4p1----5p2----2h5p2-1h4p1-4h7p4-3h6p3--|
-----00-----00---------00-----00-----00--------------------------|
     pm     ..         ..     ..     ..

-----------------------------------------------------|
-----------------------------------------------------|
-----------------------------------------------------|
-----------------------------------------------------|
-4p1----5p2----4p1-4p1----4p1----5p2----2h5p2-1h4p1--|
-----00-----00---------00-----00-----00--------------|
     pm     ..         ..     ..     ..

-----------------------------------------------------------------|
-----------------------------------------------------------------|
-----------------------------------------------------------------|
-----------------------------------------------------------------|
-4p1----5p2----4p1-4p1----4p1----5p2----2h5p2-1h4p1-4h7p4-3h6p3--|
-----00-----00---------00-----00-----00--------------------------|
     pm     ..         ..     ..     ..

-----------------------------------------------------|
-----------------------------------------------------|
-----------------------------------------------------|
-----------------------------------------------------|
-4p1----5p2----4p1-4p1----4p1----5p2----2h5p2-1h4p1--|
-----00-----00---------00-----00-----00--------------|
     pm     ..         ..     ..     ..

-----------------------------------------------------------------|
-----------------------------------------------------------------|
-----------------------------------------------------------------|
-----------------------------------------------------------------|
-4p1----5p2----4p1-4p1----4p1----5p2----2h5p2-1h4p1-4h7p4-3h6p3--|
-----00-----00---------00-----00-----00--------------------------|
     pm     ..         ..     ..     ..

-----------------------------------------------------|
-----------------------------------------------------|
-----------------------------------------------------|
-----------------------------------------------------|
-4p1----5p2----4p1-4p1----4p1----5p2----2h5p2-1h4p1--|
-----00-----00---------00-----00-----00--------------|
     pm     ..         ..     ..     ..

-----------------------------------------------------------------------------|
-----------------------------------------------------------------------------|
-----------------------------------------------------------------------------|
-----------------------------------------------------------------------------|
-4p1----5p2----4p1-4p1----4p1----5p2----2h5p2-1h4p1-4h7p4-3h6p3-2h5p2-1h4p1--|
-----00-----00---------00-----00-----00--------------------------------------|
     pm     ..         ..     ..     ..

-----------------------------------------|
-----------------------------------------|
-----------------------------------------|
-2h5p2-1h4p1-5h8p5-4h7p4-7h10p7-6h9p6----|
--------------------------------------2--|
--------------------------------------0--|

----------------------------------------------------------------------------|
----------------------------------------------------------------------------|
----------------------------------------------------------------------------|
----------------------------------------------------------------------------|
-3-2-2-3-2-5-2-3-2-3-2-5-4\3--2-3-2-5-2-3-2-3-2-5-4\3--2-3-2-5-2-3-2-4-2-4--|
-1-0-0-1-0-3-0-1-0-1-0-3-2\1--0-1-0-3-0-1-0-1-0-3-2\1--0-1-0-3-0-1-0-2-0-2--|

--------------------------|
--------------------------|
--------------------------|
-6-----9-----3-----2------|
---5-----8-----2-1---1----|
-----4-----7-----------3--|

--------------------------------------------------------------------------|
--------------------------------------------------------------------------|
--------------------------------------------------------------------------|
--------------------------------------------------------------------------|
-4\3-2-3-2-5-2-3-2-3-2-5-4\3-2-3-2-5-2-3-2-5-2-5-4\3-2-3-2-5-2-3-2-5-2-5--|
-2\1-0-1-0-3-0-1-0-1-0-3-2\1-0-1-0-3-0-1-0-3-0-3-2\1-0-1-0-3-0-1-0-3-0-3--|
     pm. .   . . . . .       .   .   .   .   .       . . .   . . . . . .

---------------------------|
---------------------------|
---------------------------|
---------------------------|
------------5-------7-6----|
-4444-4-7-4---4-7-4-----8--|
 pm.. . . .   . . .

----------------------------------------------------------------------------|
----------------------------------------------------------------------------|
----------------------------------------------------------------------------|
----------------------------------------------------------------------------|
-3-2-2-3-2-5-2-3-2-3-2-5-4\3--2-3-2-5-2-3-2-3-2-5-4\3--2-3-2-5-2-3-2-4-2-4--|
-1-0-0-1-0-3-0-1-0-1-0-3-2\1--0-1-0-3-0-1-0-1-0-3-2\1--0-1-0-3-0-1-0-2-0-2--|
   pm.   .   . . . . .          .   . . . . .          . . . . . . . . . .

--------------------------|
--------------------------|
--------------------------|
-6-----9-----3-----2------|
---5-----8-----2-1---1----|
-----4-----7-----------3--|

---------------------------------------------------|
---------------------------------------------------|
---------------------------------------------------|
---------------------------------------------------|
-4\3-2-3-2-5-2-3-2-3-2-5------------5-------7-6----|
-2\1-0-1-0-3-0-1-0-1-0-3-4444-4-7-4---4-7-4-----8--|
     pm. .   . . . . .   .... . . .   . . .

--------------------------------------------------|
--------------------------------------------------|
--------------------------------------------------|
-------------------------6-----9-----3-----2------|
-4\3-2-3-2-5-2-3-2-5-2-5---5-----8-----2-1---1----|
-2\1-0-1-0-3-0-1-0-3-0-3-----4-----7-----------3--|
    pm   .   .   .   . .

---------------------------------------------------|
---------------------------------------------------|
---------------------------------------------------|
---------------------------------------------------|
-4\3-2-3-2-5-2-3-2-3-2-5------------5-------7-6----|
-2\1-0-1-0-3-0-1-0-1-0-3-4444-4-7-4---4-7-4-----8--|
     pm. .   . . . . .   .... . . .   . . .

---------------------------------------------------------------------|
---------------------------------------------------------------------|
---------------------------------------------------------------------|
-7----------10-7----------10-7----------7----------------------------|
-5-----------8-5-----------8-5----------5-3-3-3-4-3-3-6-3-4-3-3-3-3--|
---44445555------44445555------44445555---1-1-1-2-1-1-4-1-2-1-1-1-1--|
                                          pm. . . . . . . . . . . .

-------------------------------------------------------------------|
-------------------------------------------------------------------|
-------------------------------------------------------------------|
-7----------10-7----------10-7----------7--------------------------|
-5-----------8-5-----------8-5----------5-3-3-3-4-3-3-6-3-4-3-3-3--|
---44445555------44445555------44445555---1-1-1-2-1-1-4-1-2-1-1-1--|
                                          pm. . . . . . . . . . .

--------------------------|
--------------------------|
--------------------------|
-------------3-----2------|
-3-2---6-5-----2-1---4----|
-----4-----7-----------5--|


---------------------------------------------------------------------|
---------------------------------------------------------------------|
---------------------------------------------------------------------|
-7----------10-7----------10-7----------7----------------------------|
-5-----------8-5-----------8-5----------5-3-3-3-4-3-3-6-3-4-3-3-3-3--|
---44445555------44445555------44445555---1-1-1-2-1-1-4-1-2-1-1-1-1--|
                                          pm. . . . . . . . . . . .

-------------------------------------------------------------------|
-------------------------------------------------------------------|
-------------------------------------------------------------------|
-7----------10-7----------10-7----------7--------------------------|
-5-----------8-5-----------8-5----------5-3-3-3-4-3-3-6-3-4-3-3-3--|
---44445555------44445555------44445555---1-1-1-2-1-1-4-1-2-1-1-1--|
                                          pm. . . . . . . . . . .

--------------------------|
--------------------------|
--------------------------|
-------------3-----2------|
-3-2---6-5-----2-1---4----|
-----4-----7-----------5--|

------------------------------------------------------|
------------------------------------------------------|
------------------------------------------------------|
-6-5-4-5-4---4---7-8-7-6---------------------3--------|
-----------6---6-5-6-5-4-4*trill*5-2*trill*3-1-5-2-6--|
-----------------------------------------------3-0-4--|
                 pm. . .                       . . .

-----------------------------------------------------|
-----------------------------------------------------|
-----------------------------------------------------|
-----------------------------------------------------|
-4p1----5p2----4p1-4p1----4p1----5p2----2h5p2-1h4p1--|
-----00-----00---------00-----00-----00--------------|
     pm     ..         ..     ..     ..

-----------------------------------------------------------------|
-----------------------------------------------------------------|
-----------------------------------------------------------------|
-----------------------------------------------------------------|
-4p1----5p2----4p1-4p1----4p1----5p2----2h5p2-1h4p1-4h7p4-3h6p3--|
-----00-----00---------00-----00-----00--------------------------|
     pm     ..         ..     ..     ..

-----------------------------------------------------|
-----------------------------------------------------|
-----------------------------------------------------|
-----------------------------------------------------|
-4p1----5p2----4p1-4p1----4p1----5p2----2h5p2-1h4p1--|
-----00-----00---------00-----00-----00--------------|
     pm     ..         ..     ..     ..

-----------------------------------------------------------------------------|
-----------------------------------------------------------------------------|
-----------------------------------------------------------------------------|
-----------------------------------------------------------------------------|
-4p1----5p2----4p1-4p1----4p1----5p2----2h5p2-1h4p1-4h7p4-3h6p3-2h5p2-1h4p1--|
-----00-----00---------00-----00-----00--------------------------------------|
     pm     ..         ..     ..     ..

--------------------------------------------------------|
--------------------------------------------------------|
--------------------------------------------------------|
-2h5p2-1h4p1-5h8p5-4h7p4----------------------9---------|
-------------------------------------2-8h11p7---8h11p5--|
-------------------------2h5p2-1h4p1-0------------------|
                                     pm

------------------------------------------------|
------------------------------------------------|
------------------------------------------------|
-------------------------5-4----------9---------|
-3\2---------3\2-------------6-8h11p7---8h11p5--|
-----4-3-1-1-----4-3-1-1------------------------|
     pm. . .     . . . . . . .
--------------------------------------------|
--------------------------------------------|
--------------------------------------------|
---------------------5-4----------9---------|
---------3\2-------------6-8h11p7---8h11p5--|
-3-0-1-0-----3-0-1-0------------------------|
 pm. . .     . . . . . . .

----------------------------------------------------|
----------------------------------------------------|
----------------------------------------------------|
-4/5----------4/5----------7/8---8-----7/8---8------|
-2/3-77777777-2/3-77777777-5/6-----7---5/6-----7----|
-----55555555-----55555555-----5-----6-----5-----6--|X2
                               pm          .

------------------------------------------------|
------------------------------------------------|
------------------------------------------------|
-------------------------5-4----------9---------|
-3\2---------3\2-------------6-8h11p7---8h11p5--|
-----4-3-1-1-----4-3-1-1------------------------|
     pm. . .     . . . . . . .
--------------------------------------------|
--------------------------------------------|
--------------------------------------------|
---------------------5-4----------9---------|
---------3\2-------------6-8h11p7---8h11p5--|
-3-0-1-0-----3-0-1-0------------------------|
 pm. . .     . . . . . . .

----------------------------------------------------|
----------------------------------------------------|
----------------------------------------------------|
-4/5----------4/5----------7/8---8-----7/8---8------|
-2/3-77777777-2/3-77777777-5/6-----7---5/6-----7----|
-----55555555-----55555555-----5-----6-----5-----6--|X4
                               pm          .

------------------------------------------------------|
------------------------------------------------------|
------------------------------------------------------|
-6-5-4-5-4---4---7-8-7-6---------------------3--------|
-----------6---6-5-6-5-4-4*trill*5-2*trill*3-1-5-2-6--|
-----------------------------------------------3-0-4--|
                 pm. . .                       . . .

---------------------------------------------------------------------|
---------------------------------------------------------------------|
---------------------------------------------------------------------|
-7----------10-7----------10-7----------7----------------------------|
-5-----------8-5-----------8-5----------5-3-3-3-4-3-3-6-3-4-3-3-3-3--|
---44445555------44445555------44445555---1-1-1-2-1-1-4-1-2-1-1-1-1--|
                                          pm. . . . . . . . . . . .

-------------------------------------------------------------------|
-------------------------------------------------------------------|
-------------------------------------------------------------------|
-7----------10-7----------10-7----------7--------------------------|
-5-----------8-5-----------8-5----------5-3-3-3-4-3-3-6-3-4-3-3-3--|
---44445555------44445555------44445555---1-1-1-2-1-1-4-1-2-1-1-1--|
                                          pm. . . . . . . . . . .

--------------------------|
--------------------------|
--------------------------|
-------------3-----2------|
-3-2---6-5-----2-1---4----|
-----4-----7-----------5--|


---------------------------------------------------------------------|
---------------------------------------------------------------------|
---------------------------------------------------------------------|
-7----------10-7----------10-7----------7----------------------------|
-5-----------8-5-----------8-5----------5-3-3-3-4-3-3-6-3-4-3-3-3-3--|
---44445555------44445555------44445555---1-1-1-2-1-1-4-1-2-1-1-1-1--|
                                          pm. . . . . . . . . . . .

-------------------------------------------------------------------|
-------------------------------------------------------------------|
-------------------------------------------------------------------|
-7----------10-7----------10-7----------7--------------------------|
-5-----------8-5-----------8-5----------5-3-3-3-4-3-3-6-3-4-3-3-3--|
---44445555------44445555------44445555---1-1-1-2-1-1-4-1-2-1-1-1--|
                                          pm. . . . . . . . . . .

--------------------------|
--------------------------|
--------------------------|
-------------3-----2------|
-3-2---6-5-----2-1---4----|
-----4-----7-----------5--|

------------------------------------------------|
------------------------------------------------|
------------------------------------------------|
-------------------------5-4----------9---------|
-3\2---------3\2-------------6-8h11p7---8h11p5--|
-----4-3-1-1-----4-3-1-1------------------------|
     pm. . .     . . . . . . .

--------------------------------------------|
--------------------------------------------|
--------------------------------------------|
---------------------5-4----------9---------|
---------3\2-------------6-8h11p7---8h11p5--|
-3-0-1-0-----3-0-1-0------------------------|
 pm. . .     . . . . . . .

----------------------------------------------------|
----------------------------------------------------|
----------------------------------------------------|
-4/5----------4/5----------7/8---8-----7/8---8------|
-2/3-77777777-2/3-77777777-5/6-----7---5/6-----7----|
-----55555555-----55555555-----5-----6-----5-----6--|X2
                               pm          .

------------------------------------------------|
------------------------------------------------|
------------------------------------------------|
-------------------------5-4----------9---------|
-3\2---------3\2-------------6-8h11p7---8h11p5--|
-----4-3-1-1-----4-3-1-1------------------------|
     pm. . .     . . . . . . .

--------------------------------------------|
--------------------------------------------|
--------------------------------------------|
---------------------5-4----------9---------|
---------3\2-------------6-8h11p7---8h11p5--|
-3-0-1-0-----3-0-1-0------------------------|
 pm. . .     . . . . . . .

----------------------------------------------------|
----------------------------------------------------|
----------------------------------------------------|
-4/5----------4/5----------7/8---8-----7/8---8------|
-2/3-77777777-2/3-77777777-5/6-----7---5/6-----7----|
-----55555555-----55555555-----5-----6-----5-----6--|X4
                               pm          .
------------------------------------------------------|
------------------------------------------------------|
------------------------------------------------------|
-6-5-4-5-4---4---7-8-7-6---------------------3--------|
-----------6---6-5-6-5-4-4*trill*5-2*trill*3-1-5-2-6--|
-----------------------------------------------3-0-4--|
                 pm. . .                       . . .

-----------------------------------------------------|
-----------------------------------------------------|
-----------------------------------------------------|
-----------------------------------------------------|
-4p1----5p2----4p1-4p1----4p1----5p2----2h5p2-1h4p1--|
-----00-----00---------00-----00-----00--------------|
     pm     ..         ..     ..     ..

-----------------------------------------------------------------|
-----------------------------------------------------------------|
-----------------------------------------------------------------|
-----------------------------------------------------------------|
-4p1----5p2----4p1-4p1----4p1----5p2----2h5p2-1h4p1-4h7p4-3h6p3--|
-----00-----00---------00-----00-----00--------------------------|
     pm     ..         ..     ..     ..

-----------------------------------------------------|
-----------------------------------------------------|
-----------------------------------------------------|
-----------------------------------------------------|
-4p1----5p2----4p1-4p1----4p1----5p2----2h5p2-1h4p1--|
-----00-----00---------00-----00-----00--------------|
     pm     ..         ..     ..     ..

-----------------------------------------------------------------------------|
-----------------------------------------------------------------------------|
-----------------------------------------------------------------------------|
-----------------------------------------------------------------------------|
-4p1----5p2----4p1-4p1----4p1----5p2----2h5p2-1h4p1-4h7p4-3h6p3-2h5p2-1h4p1--|
-----00-----00---------00-----00-----00--------------------------------------|
     pm     ..         ..     ..     ..

----------------------------------------|
----------------------------------------|
----------------------------------------|
-2h5p2-1h4p1-5h8p5-4h7p4----------------|
-------------------------------------2--|
-------------------------2h5p2-1h4p1-0--|



THE END
comments
We did not receive enough feedback on this tab! Please rate:
print report bad tab
1 2 3 4 5
I want to post or [tab]
guest
You may want to rate the tab now too:
select rating
Please do not post tabs as comments. Select "correction" instead!