Oops, an error
Loading. Please wait.

Coffinfeeder Tab

ver2
ver2

Whole song

Interactive

More versions @911Tabs.com
150 views 1 this week
no commentswrite comment
1 2 3 4 5
please rate
Autoscroll
+/-
esc
set tempo
stop
Contributor
Hey! There's an official Ultimate Guitar app which is ideal
for learning songs when you're away from computer. Get the app
WARNING: You are trying to view
                                    content from Ultimate-Guitar.com
                                    in an unauthorized application,
                                    which is prohibited.

                                    Please use an official Ultimate
                                    Guitar Tabs application for iPhone,
                                    iPad or Android to access legitimate
                                    chords, guitar, bass, and drum tabs
                                    from Ultimate-Guitar.com database.

                                    Type "ultimate guitar tabs" in Apple
                                    App Store's or Android Market's
                                    search to find the application.
#----------------------------------PLEASE NOTE---------------------------------#
#This file is the author's own work and represents their interpretation of the #
#song. You may only use this file for private study, scholarship, or research. #
#------------------------------------------------------------------------------##

                                  COFFINFEEDER
                         As recorded by Cannibal Corpse
                        (From the 1999 Album BLOODTHIRST)

Words and Music by Alex Webster



   Intro
    Fast Death Metal Q=2Slower Q=218
   4/4
    Gtrs I, II
    PM-|
    Q  E H    E  4x     H    H      H    H
||---------------||-||------------|------------||
||o-------------o||-||o-----------|-----------o||
||---------------||-||------------|------------||
||--5------------||-||--5----8----|-4----7-----||
||o-3--2--------o||-||o-3----6----|-2----5----o||
||--3--0---------||-||--3----6----|-2----5-----||


   Verse
    Faster Q=220
    PM------------------------------------------------|                     ~
                                                          |-3-| |-3-| |-3-|
    E E E E E E E E   E E E E E E E E   E E E E E E E E   E E E E E E E E E Q
||------------------|-----------------|-----------------|----------------------|
||o-----------------|-----------------|-----------------|----------------------|
||------------------|-----------------|-----------------|----------------------|
||------------------|-----------------|-----------------|----------------------|
||o-----------------|-----------------|-----------------|----------------------|
||--3-0-6-0-9-8-6-0-|-3-0-6-0-9-8-6-0-|-3-0-6-0-9-8-6-0-|-3-3-3-6-6-6-2-2-2-5--|


  PM------------------------------------------------|      PM|    PM|
  E E E E E E E E   E E E E E E E E   E E E E E E E E   Q  S S Q  S S Q
|-----------------|-----------------|-----------------|-------------------||
|-----------------|-----------------|-----------------|------------------o||
|-----------------|-----------------|-----------------|-------------------||
|-----------------|-----------------|-----------------|-------------------||
|-----------------|-----------------|-----------------|-8------9------8--o||
|-3-0-6-0-9-8-6-0-|-3-0-6-0-9-8-6-0-|-3-0-6-0-9-8-6-0-|-6--0-0-7--0-0-6---||


 Chorus
  Slower Q=193
 3/4                        5/4
  S S S S S S S S S S S S    S S S S S S S S S S S S S S S S S S S S
|-------------------------||-----------------------------------------||
|-------------------------||-----------------------------------------||
|-------------------------||-6-6-6-6-6-6-6-6-------------------------||
|-5-5-5-5-5-5-5-5-8-8-8-8-||-----------------8-8-8-8-4-4-4-4-8-8-8-8-||
|-------------------------||-----------------------------------------||
|-------------------------||-----------------------------------------||
|
| Gtr II
| S S S S S S S S S S S S    S S S S S S S S S S S S S S S S S S S S
|-------------------------||-----------------------------------------||
|-------------------------||-----------------------------------------||
|-------------------------||-----------------------------------------||
|-2-2-2-2-2-2-2-2-5-5-5-5-||-4-4-4-4-4-4-4-4-5-5-5-5-7-7-7-7-5-5-5-5-||
|-------------------------||-----------------------------------------||
|-------------------------||-----------------------------------------||


 3/4                        5/4
  S S S S S S S S S S S S    S S S S S S S S S S S S S S S S S S S S
|-------------------------||--------------------------------------------|
|-------------------------||--------------------------------------------|
|-------------------------||-6-6-6-6-6-6-6-6-7-7-7-7--------------------|
|-5-5-5-5-5-5-5-5-8-8-8-8-||-------------------------7-7-7-7-4-4-4-4----|
|-------------------------||--------------------------------------------|
|-------------------------||--------------------------------------------|
|
| S S S S S S S S S S S S    S S S S S S S S S S S S S S S S S S S S
|-------------------------||--------------------------------------------|
|-------------------------||--------------------------------------------|
|-------------------------||--------------------------------------------|
|-2-2-2-2-2-2-2-2-5-5-5-5-||-4-4-4-4-4-4-4-4-5-5-5-5-4-4-4-4-1-1-1-1----|
|-------------------------||--------------------------------------------|
|-------------------------||--------------------------------------------|


 3/4                        5/4
  S S S S S S S S S S S S    S S S S S S S S S S S S S S S S S S S S
|-------------------------||-----------------------------------------||
|-------------------------||-----------------------------------------||
|-------------------------||-6-6-6-6-6-6-6-6-------------------------||
|-5-5-5-5-5-5-5-5-8-8-8-8-||-----------------8-8-8-8-4-4-4-4-8-8-8-8-||
|-------------------------||-----------------------------------------||
|-------------------------||-----------------------------------------||
|
| S S S S S S S S S S S S    S S S S S S S S S S S S S S S S S S S S
|-------------------------||-----------------------------------------||
|-------------------------||-----------------------------------------||
|-------------------------||-----------------------------------------||
|-2-2-2-2-2-2-2-2-5-5-5-5-||-4-4-4-4-4-4-4-4-5-5-5-5-7-7-7-7-5-5-5-5-||
|-------------------------||-----------------------------------------||
|-------------------------||-----------------------------------------||


 8/4
  S S S S S S S S S S S S S S S S S S S S S S S S S S S S S S S S
|--------------------------------------------------------------------|
|--------------------------------------------------------------------|
|--------------------------------------------------------------------|
|-7-7-7-7-7-7-7-7-7-7-7-7-7-7-7-7-4-4-4-4-4-4-4-4-4-4-4-4-4-4-4-4----|
|--------------------------------------------------------------------|
|--------------------------------------------------------------------|
|
| S S S S S S S S S S S S S S S S S S S S S S S S S S S S S S S S
|--------------------------------------------------------------------|
|--------------------------------------------------------------------|
|--------------------------------------------------------------------|
|-4-4-4-4-4-4-4-4-4-4-4-4-4-4-4-4-1-1-1-1-1-1-1-1-1-1-1-1-1-1-1-1----|
|--------------------------------------------------------------------|
|--------------------------------------------------------------------|


 3/4                        5/4
  S S S S S S S S S S S S    S S S S S S S S S S S S S S S S S S S S
|-------------------------||-----------------------------------------||
|-------------------------||-----------------------------------------||
|-------------------------||-----------------------------------------||
|-2-2-2-2-2-2-2-2-5-5-5-5-||-4-4-4-4-4-4-4-4-5-5-5-5-7-7-7-7-5-5-5-5-||
|-------------------------||-----------------------------------------||
|-------------------------||-----------------------------------------||
|
| S S S S S S S S S S S S    S S S S S S S S S S S S S S S S S S S S
|-------------------------||-----------------------------------------||
|-------------------------||-----------------------------------------||
|-------------------------||-------------------------5-5-5-5---------||
|-5-5-5-5-5-5-5-5-8-8-8-8-||-7-7-7-7-7-7-7-7-8-8-8-8---------8-8-8-8-||
|-------------------------||-----------------------------------------||
|-------------------------||-----------------------------------------||


 3/4                        5/4
  S S S S S S S S S S S S    S S S S S S S S S S S S S S S S S S S S
|-------------------------||--------------------------------------------|
|-------------------------||--------------------------------------------|
|-------------------------||--------------------------------------------|
|-2-2-2-2-2-2-2-2-5-5-5-5-||-4-4-4-4-4-4-4-4-5-5-5-5-4-4-4-4-1-1-1-1----|
|-------------------------||--------------------------------------------|
|-------------------------||--------------------------------------------|
|
| S S S S S S S S S S S S    S S S S S S S S S S S S S S S S S S S S
|-------------------------||--------------------------------------------|
|-------------------------||--------------------------------------------|
|-------------------------||--------------------------------------------|
|-5-5-5-5-5-5-5-5-8-8-8-8-||-7-7-7-7-7-7-7-7-8-8-8-8-7-7-7-7-4-4-4-4----|
|-------------------------||--------------------------------------------|
|-------------------------||--------------------------------------------|


 3/4                        5/4
  S S S S S S S S S S S S    S S S S S S S S S S S S S S S S S S S S
|-------------------------||-----------------------------------------||
|-------------------------||-----------------------------------------||
|-------------------------||-----------------------------------------||
|-2-2-2-2-2-2-2-2-5-5-5-5-||-4-4-4-4-4-4-4-4-5-5-5-5-7-7-7-7-5-5-5-5-||
|-------------------------||-----------------------------------------||
|-------------------------||-----------------------------------------||
|
| S S S S S S S S S S S S    S S S S S S S S S S S S S S S S S S S S
|-------------------------||-----------------------------------------||
|-------------------------||-----------------------------------------||
|-------------------------||-------------------------5-5-5-5---------||
|-5-5-5-5-5-5-5-5-8-8-8-8-||-7-7-7-7-7-7-7-7-8-8-8-8---------8-8-8-8-||
|-------------------------||-----------------------------------------||
|-------------------------||-----------------------------------------||


 8/4
  S S S S S S S S S S S S S S S S S S S S S S S S S S S S S S S S
|--------------------------------------------------------------------|
|--------------------------------------------------------------------|
|--------------------------------------------------------------------|
|-4-4-4-4-4-4-4-4-4-4-4-4-4-4-4-4-1-1-1-1-1-1-1-1-1-1-1-1-1-1-1-1----|
|--------------------------------------------------------------------|
|--------------------------------------------------------------------|
|
| S S S S S S S S S S S S S S S S S S S S S S S S S S S S S S S S
|--------------------------------------------------------------------|
|--------------------------------------------------------------------|
|--------------------------------------------------------------------|
|-7-7-7-7-7-7-7-7-7-7-7-7-7-7-7-7-4-4-4-4-4-4-4-4-4-4-4-4-4-4-4-4----|
|--------------------------------------------------------------------|
|--------------------------------------------------------------------|


 Post Chorus
 6/8                                2/4
  Gtrs I, II
   PM----|     PM---------|     PM
   S S E E E E E    S S E E E E E    E E E E
|----------------|----------------||---------|
|----------------|----------------||---------|
|----------------|----------------||---------|
|----------------|----------------||---------|
|----------9s8---|----------9s8---||-8s7-8s7-|
|-10-7-0-0-7s6-0-|-10-7-0-0-7s6-0-||-6s5-6s5-|


   Verse
    Faster Q=220
   4/4
    PM---------------------------------
    E E E E E E E E   E E E E E E E E
||------------------|-----------------|
||o-----------------|-----------------|
||------------------|-----------------|
||------------------|-----------------|
||o-----------------|-----------------|
||--3-0-6-0-9-8-6-0-|-3-0-6-0-9-8-6-0-|


 ---------------|                     ~
                    |-3-| |-3-| |-3-|
  E E E E E E E E   E E E E E E E E E Q
|-----------------|-----------------------|
|-----------------|-----------------------|
|-----------------|-----------------------|
|-----------------|-----------------------|
|-----------------|-----------------------|
|-3-0-6-0-9-8-6-0-|-3-3-3-6-6-6-2-2-2-5---|


  PM------------------------------------------------|      PM|    PM|
  E E E E E E E E   E E E E E E E E   E E E E E E E E   Q  S S Q  S S Q
|-----------------|-----------------|-----------------|-------------------||
|-----------------|-----------------|-----------------|------------------o||
|-----------------|-----------------|-----------------|-------------------||
|-----------------|-----------------|-----------------|-------------------||
|-----------------|-----------------|-----------------|-8------9------8--o||
|-3-0-6-0-9-8-6-0-|-3-0-6-0-9-8-6-0-|-3-0-6-0-9-8-6-0-|-6--0-0-7--0-0-6---||


 Chorus
  Slower Q=193
 3/4                        5/4
  S S S S S S S S S S S S    S S S S S S S S S S S S S S S S S S S S
|-------------------------||-----------------------------------------||
|-------------------------||-----------------------------------------||
|-------------------------||-6-6-6-6-6-6-6-6-------------------------||
|-5-5-5-5-5-5-5-5-8-8-8-8-||-----------------8-8-8-8-4-4-4-4-8-8-8-8-||
|-------------------------||-----------------------------------------||
|-------------------------||-----------------------------------------||
|
| Gtr II
| S S S S S S S S S S S S    S S S S S S S S S S S S S S S S S S S S
|-------------------------||-----------------------------------------||
|-------------------------||-----------------------------------------||
|-------------------------||-----------------------------------------||
|-2-2-2-2-2-2-2-2-5-5-5-5-||-4-4-4-4-4-4-4-4-5-5-5-5-7-7-7-7-5-5-5-5-||
|-------------------------||-----------------------------------------||
|-------------------------||-----------------------------------------||


 3/4                        5/4
  S S S S S S S S S S S S    S S S S S S S S S S S S S S S S S S S S
|-------------------------||--------------------------------------------|
|-------------------------||--------------------------------------------|
|-------------------------||-6-6-6-6-6-6-6-6-7-7-7-7--------------------|
|-5-5-5-5-5-5-5-5-8-8-8-8-||-------------------------7-7-7-7-4-4-4-4----|
|-------------------------||--------------------------------------------|
|-------------------------||--------------------------------------------|
|
| S S S S S S S S S S S S    S S S S S S S S S S S S S S S S S S S S
|-------------------------||--------------------------------------------|
|-------------------------||--------------------------------------------|
|-------------------------||--------------------------------------------|
|-2-2-2-2-2-2-2-2-5-5-5-5-||-4-4-4-4-4-4-4-4-5-5-5-5-4-4-4-4-1-1-1-1----|
|-------------------------||--------------------------------------------|
|-------------------------||--------------------------------------------|


 3/4                        5/4
  S S S S S S S S S S S S    S S S S S S S S S S S S S S S S S S S S
|-------------------------||-----------------------------------------||
|-------------------------||-----------------------------------------||
|-------------------------||-6-6-6-6-6-6-6-6-------------------------||
|-5-5-5-5-5-5-5-5-8-8-8-8-||-----------------8-8-8-8-4-4-4-4-8-8-8-8-||
|-------------------------||-----------------------------------------||
|-------------------------||-----------------------------------------||
|
| S S S S S S S S S S S S    S S S S S S S S S S S S S S S S S S S S
|-------------------------||-----------------------------------------||
|-------------------------||-----------------------------------------||
|-------------------------||-----------------------------------------||
|-2-2-2-2-2-2-2-2-5-5-5-5-||-4-4-4-4-4-4-4-4-5-5-5-5-7-7-7-7-5-5-5-5-||
|-------------------------||-----------------------------------------||
|-------------------------||-----------------------------------------||


 8/4
  S S S S S S S S S S S S S S S S S S S S S S S S S S S S S S S S
|--------------------------------------------------------------------|
|--------------------------------------------------------------------|
|--------------------------------------------------------------------|
|-7-7-7-7-7-7-7-7-7-7-7-7-7-7-7-7-4-4-4-4-4-4-4-4-4-4-4-4-4-4-4-4----|
|--------------------------------------------------------------------|
|--------------------------------------------------------------------|
|
| S S S S S S S S S S S S S S S S S S S S S S S S S S S S S S S S
|--------------------------------------------------------------------|
|--------------------------------------------------------------------|
|--------------------------------------------------------------------|
|-4-4-4-4-4-4-4-4-4-4-4-4-4-4-4-4-1-1-1-1-1-1-1-1-1-1-1-1-1-1-1-1----|
|--------------------------------------------------------------------|
|--------------------------------------------------------------------|


 3/4                        5/4
  S S S S S S S S S S S S    S S S S S S S S S S S S S S S S S S S S
|-------------------------||-----------------------------------------||
|-------------------------||-----------------------------------------||
|-------------------------||-----------------------------------------||
|-2-2-2-2-2-2-2-2-5-5-5-5-||-4-4-4-4-4-4-4-4-5-5-5-5-7-7-7-7-5-5-5-5-||
|-------------------------||-----------------------------------------||
|-------------------------||-----------------------------------------||
|
| S S S S S S S S S S S S    S S S S S S S S S S S S S S S S S S S S
|-------------------------||-----------------------------------------||
|-------------------------||-----------------------------------------||
|-------------------------||-------------------------5-5-5-5---------||
|-5-5-5-5-5-5-5-5-8-8-8-8-||-7-7-7-7-7-7-7-7-8-8-8-8---------8-8-8-8-||
|-------------------------||-----------------------------------------||
|-------------------------||-----------------------------------------||


 3/4                        5/4
  S S S S S S S S S S S S    S S S S S S S S S S S S S S S S S S S S
|-------------------------||--------------------------------------------|
|-------------------------||--------------------------------------------|
|-------------------------||--------------------------------------------|
|-2-2-2-2-2-2-2-2-5-5-5-5-||-4-4-4-4-4-4-4-4-5-5-5-5-4-4-4-4-1-1-1-1----|
|-------------------------||--------------------------------------------|
|-------------------------||--------------------------------------------|
|
| S S S S S S S S S S S S    S S S S S S S S S S S S S S S S S S S S
|-------------------------||--------------------------------------------|
|-------------------------||--------------------------------------------|
|-------------------------||--------------------------------------------|
|-5-5-5-5-5-5-5-5-8-8-8-8-||-7-7-7-7-7-7-7-7-8-8-8-8-7-7-7-7-4-4-4-4----|
|-------------------------||--------------------------------------------|
|-------------------------||--------------------------------------------|


 3/4                        5/4
  S S S S S S S S S S S S    S S S S S S S S S S S S S S S S S S S S
|-------------------------||-----------------------------------------||
|-------------------------||-----------------------------------------||
|-------------------------||-----------------------------------------||
|-2-2-2-2-2-2-2-2-5-5-5-5-||-4-4-4-4-4-4-4-4-5-5-5-5-7-7-7-7-5-5-5-5-||
|-------------------------||-----------------------------------------||
|-------------------------||-----------------------------------------||
|
| S S S S S S S S S S S S    S S S S S S S S S S S S S S S S S S S S
|-------------------------||-----------------------------------------||
|-------------------------||-----------------------------------------||
|-------------------------||-------------------------5-5-5-5---------||
|-5-5-5-5-5-5-5-5-8-8-8-8-||-7-7-7-7-7-7-7-7-8-8-8-8---------8-8-8-8-||
|-------------------------||-----------------------------------------||
|-------------------------||-----------------------------------------||


 8/4
  S S S S S S S S S S S S S S S S S S S S S S S S S S S S S S S S
|--------------------------------------------------------------------|
|--------------------------------------------------------------------|
|--------------------------------------------------------------------|
|-4-4-4-4-4-4-4-4-4-4-4-4-4-4-4-4-1-1-1-1-1-1-1-1-1-1-1-1-1-1-1-1----|
|--------------------------------------------------------------------|
|--------------------------------------------------------------------|
|
| S S S S S S S S S S S S S S S S S S S S S S S S S S S S S S S S
|--------------------------------------------------------------------|
|--------------------------------------------------------------------|
|--------------------------------------------------------------------|
|-7-7-7-7-7-7-7-7-7-7-7-7-7-7-7-7-4-4-4-4-4-4-4-4-4-4-4-4-4-4-4-4----|
|--------------------------------------------------------------------|
|--------------------------------------------------------------------|


 Post Chorus
 6/8                                2/4
  Gtrs I, II
   PM----|     PM---------|     PM
   S S E E E E E    S S E E E E E    E E E E
|----------------|----------------||---------|
|----------------|----------------||---------|
|----------------|----------------||---------|
|----------------|----------------||---------|
|----------9s8---|----------9s8---||-8s7-8s7-|
|-10-7-0-0-7s6-0-|-10-7-0-0-7s6-0-||-6s5-6s5-|


   Interlude
    Faster Q=220
   6/8
    PM----|         PM----|         PM----|         PM----|
    S S E E E E E   S S E E E E E   S S E E E E E   S S E E E E E
||----------------|---------------|---------------|---------------|
||o---------------|---------------|---------------|---------------|
||----------------|---------------|---------------|---------------|
||----------------|---------------|---------------|---------------|
||o---------6s5---|---------6s5---|---------6s5---|---------6s5---|
||--3-3-3-0-4s3---|-3-3-3-0-4s3---|-3-3-3-0-4s3---|-3-3-3-0-4s3---|


                                                 1.
  PM----|         PM----|         PM----|     PM
  S S E E E E E   S S E E E E E   S S E E E E E   Q.   Q.
|---------------|---------------|---------------|------------||
|---------------|---------------|---------------|-----------o||
|---------------|---------------|---------------|------------||
|---------------|---------------|---------------|------------||
|---------6s5---|---------6s5---|---------6s5---|-5----8----o||
|-3-3-3-0-4s3---|-3-3-3-0-4s3---|-3-3-3-0-4s3-0-|-3----6-----||


   Pre Solo
    2.ightly Slower Q=218
   4/4
    H    H      H    H      H    H      H    H
||------------|-----------|-----------|------------||
||o-----------|-----------|-----------|-----------o||
||------------|-----------|-----------|------------||
||------------|-----------|-----------|------------||
||o-5----8----|-4----7----|-5----8----|-4----7----o||
||--3----6----|-2----5----|-3----6----|-2----5-----||


 Solo Rhythym
  Faster Q=220
  PM------------------------------------------------|                     ~
                                                        |-3-| |-3-| |-3-|
  E E E E E E E E   E E E E E E E E   E E E E E E E E   E E E E E E E E E Q
|-----------------|-----------------|-----------------|-----------------------|
|-----------------|-----------------|-----------------|-----------------------|
|-----------------|-----------------|-----------------|-----------------------|
|-----------------|-----------------|-----------------|-----------------------|
|-----------------|-----------------|-----------------|-----------------------|
|-3-0-6-0-9-8-6-0-|-3-0-6-0-9-8-6-0-|-3-0-6-0-9-8-6-0-|-3-3-3-6-6-6-2-2-2-5---|


  PM------------------------------------------------|      PM|    PM|
  E E E E E E E E   E E E E E E E E   E E E E E E E E   Q  S S Q  S S Q
|-----------------|-----------------|-----------------|------------------|
|-----------------|-----------------|-----------------|------------------|
|-----------------|-----------------|-----------------|------------------|
|-----------------|-----------------|-----------------|------------------|
|-----------------|-----------------|-----------------|-8------9------8--|
|-3-0-6-0-9-8-6-0-|-3-0-6-0-9-8-6-0-|-3-0-6-0-9-8-6-0-|-6--0-0-7--0-0-6--|


   Interlude II
   6/8
    PM----|         PM----|         PM----|         PM----|
    S S E E E E E   S S E E E E E   S S E E E E E   S S E E E E E
||----------------|---------------|---------------|---------------|
||o---------------|---------------|---------------|---------------|
||----------------|---------------|---------------|---------------|
||----------------|---------------|---------------|---------------|
||o---------6s5---|---------6s5---|---------6s5---|---------6s5---|
||--3-3-3-0-4s3---|-3-3-3-0-4s3---|-3-3-3-0-4s3---|-3-3-3-0-4s3---|


                                                 1.
  PM----|         PM----|         PM----|     PM
  S S E E E E E   S S E E E E E   S S E E E E E   Q.   Q.
|---------------|---------------|---------------|------------||
|---------------|---------------|---------------|-----------o||
|---------------|---------------|---------------|------------||
|---------------|---------------|---------------|------------||
|---------6s5---|---------6s5---|---------6s5---|-5----8----o||
|-3-3-3-0-4s3---|-3-3-3-0-4s3---|-3-3-3-0-4s3-0-|-3----6-----||


 Bridge
  2.ightly Slower Q=218
 4/4
  H    H      H    H      H    H      H    H
|-----------|-----------|-----------|-----------|
|-----------|-----------|-----------|-----------|
|-----------|-----------|-----------|-----------|
|-----------|-----------|-----------|-----------|
|-5----8----|-4----7----|-5----8----|-4----7----|
|-3----6----|-2----5----|-3----6----|-2----5----|


   Interlude III
                            PM----------------------------|
    H    H      H    H      S S S S S S S S S S S S S S S S
||------------|-----------|---------------------------------|
||o-----------|-----------|---------------------------------|
||------------|-----------|---------------------------------|
||------------|-----------|---------------------------------|
||o-5----8----|-4----7----|-3-3-3-3-3-3-3-3-3-3-3-3-3-3-3-3-|
||--3----6----|-2----5----|---------------------------------|


  |-3-| |-3-| |-3-| |-3-|
  E E E E E E E E E E E E
|----------------------------|
|----------------------------|
|----------------------------|
|-------4h7p4----------------|
|-3h6p3-------3h6p3----------|
|-------------------5h8p5----|


                          PM----------------------------|
  H    H      H    H      S S S S S S S S S S S S S S S S
|-----------|-----------|---------------------------------|
|-----------|-----------|---------------------------------|
|-----------|-----------|---------------------------------|
|-----------|-----------|---------------------------------|
|-5----8----|-4----7----|---------------------------------|
|-3----6----|-2----5----|-2-2-2-2-2-2-2-2-2-2-2-2-2-2-2-2-|


  |-3-| |-3-| |-3-| |-3-|
  E E E E E E E E E E E E
|--------------------------||
|-------------------------o||
|--------------------------||
|--------------------------||
|-------3h6p3-------------o||
|-2h5p2-------2h5p2-2h5p2--||


 Chorus
  Slower Q=193
 3/4                        5/4
  S S S S S S S S S S S S    S S S S S S S S S S S S S S S S S S S S
|-------------------------||-----------------------------------------||
|-------------------------||-----------------------------------------||
|-------------------------||-6-6-6-6-6-6-6-6-------------------------||
|-5-5-5-5-5-5-5-5-8-8-8-8-||-----------------8-8-8-8-4-4-4-4-8-8-8-8-||
|-------------------------||-----------------------------------------||
|-------------------------||-----------------------------------------||
|
| Gtr II
| S S S S S S S S S S S S    S S S S S S S S S S S S S S S S S S S S
|-------------------------||-----------------------------------------||
|-------------------------||-----------------------------------------||
|-------------------------||-----------------------------------------||
|-2-2-2-2-2-2-2-2-5-5-5-5-||-4-4-4-4-4-4-4-4-5-5-5-5-7-7-7-7-5-5-5-5-||
|-------------------------||-----------------------------------------||
|-------------------------||-----------------------------------------||


 3/4                        5/4
  S S S S S S S S S S S S    S S S S S S S S S S S S S S S S S S S S
|-------------------------||--------------------------------------------|
|-------------------------||--------------------------------------------|
|-------------------------||-6-6-6-6-6-6-6-6-7-7-7-7--------------------|
|-5-5-5-5-5-5-5-5-8-8-8-8-||-------------------------7-7-7-7-4-4-4-4----|
|-------------------------||--------------------------------------------|
|-------------------------||--------------------------------------------|
|
| S S S S S S S S S S S S    S S S S S S S S S S S S S S S S S S S S
|-------------------------||--------------------------------------------|
|-------------------------||--------------------------------------------|
|-------------------------||--------------------------------------------|
|-2-2-2-2-2-2-2-2-5-5-5-5-||-4-4-4-4-4-4-4-4-5-5-5-5-4-4-4-4-1-1-1-1----|
|-------------------------||--------------------------------------------|
|-------------------------||--------------------------------------------|


 3/4                        5/4
  S S S S S S S S S S S S    S S S S S S S S S S S S S S S S S S S S
|-------------------------||-----------------------------------------||
|-------------------------||-----------------------------------------||
|-------------------------||-6-6-6-6-6-6-6-6-------------------------||
|-5-5-5-5-5-5-5-5-8-8-8-8-||-----------------8-8-8-8-4-4-4-4-8-8-8-8-||
|-------------------------||-----------------------------------------||
|-------------------------||-----------------------------------------||
|
| S S S S S S S S S S S S    S S S S S S S S S S S S S S S S S S S S
|-------------------------||-----------------------------------------||
|-------------------------||-----------------------------------------||
|-------------------------||-----------------------------------------||
|-2-2-2-2-2-2-2-2-5-5-5-5-||-4-4-4-4-4-4-4-4-5-5-5-5-7-7-7-7-5-5-5-5-||
|-------------------------||-----------------------------------------||
|-------------------------||-----------------------------------------||


 8/4
  S S S S S S S S S S S S S S S S S S S S S S S S S S S S S S S S
|--------------------------------------------------------------------|
|--------------------------------------------------------------------|
|--------------------------------------------------------------------|
|-7-7-7-7-7-7-7-7-7-7-7-7-7-7-7-7-4-4-4-4-4-4-4-4-4-4-4-4-4-4-4-4----|
|--------------------------------------------------------------------|
|--------------------------------------------------------------------|
|
| S S S S S S S S S S S S S S S S S S S S S S S S S S S S S S S S
|--------------------------------------------------------------------|
|--------------------------------------------------------------------|
|--------------------------------------------------------------------|
|-4-4-4-4-4-4-4-4-4-4-4-4-4-4-4-4-1-1-1-1-1-1-1-1-1-1-1-1-1-1-1-1----|
|--------------------------------------------------------------------|
|--------------------------------------------------------------------|


 3/4                        5/4
  S S S S S S S S S S S S    S S S S S S S S S S S S S S S S S S S S
|-------------------------||-----------------------------------------||
|-------------------------||-----------------------------------------||
|-------------------------||-----------------------------------------||
|-2-2-2-2-2-2-2-2-5-5-5-5-||-4-4-4-4-4-4-4-4-5-5-5-5-7-7-7-7-5-5-5-5-||
|-------------------------||-----------------------------------------||
|-------------------------||-----------------------------------------||
|
| S S S S S S S S S S S S    S S S S S S S S S S S S S S S S S S S S
|-------------------------||-----------------------------------------||
|-------------------------||-----------------------------------------||
|-------------------------||-------------------------5-5-5-5---------||
|-5-5-5-5-5-5-5-5-8-8-8-8-||-7-7-7-7-7-7-7-7-8-8-8-8---------8-8-8-8-||
|-------------------------||-----------------------------------------||
|-------------------------||-----------------------------------------||


 3/4                        5/4
  S S S S S S S S S S S S    S S S S S S S S S S S S S S S S S S S S
|-------------------------||--------------------------------------------|
|-------------------------||--------------------------------------------|
|-------------------------||--------------------------------------------|
|-2-2-2-2-2-2-2-2-5-5-5-5-||-4-4-4-4-4-4-4-4-5-5-5-5-4-4-4-4-1-1-1-1----|
|-------------------------||--------------------------------------------|
|-------------------------||--------------------------------------------|
|
| S S S S S S S S S S S S    S S S S S S S S S S S S S S S S S S S S
|-------------------------||--------------------------------------------|
|-------------------------||--------------------------------------------|
|-------------------------||--------------------------------------------|
|-5-5-5-5-5-5-5-5-8-8-8-8-||-7-7-7-7-7-7-7-7-8-8-8-8-7-7-7-7-4-4-4-4----|
|-------------------------||--------------------------------------------|
|-------------------------||--------------------------------------------|


 3/4                        5/4
  S S S S S S S S S S S S    S S S S S S S S S S S S S S S S S S S S
|-------------------------||-----------------------------------------||
|-------------------------||-----------------------------------------||
|-------------------------||-----------------------------------------||
|-2-2-2-2-2-2-2-2-5-5-5-5-||-4-4-4-4-4-4-4-4-5-5-5-5-7-7-7-7-5-5-5-5-||
|-------------------------||-----------------------------------------||
|-------------------------||-----------------------------------------||
|
| S S S S S S S S S S S S    S S S S S S S S S S S S S S S S S S S S
|-------------------------||-----------------------------------------||
|-------------------------||-----------------------------------------||
|-------------------------||-------------------------5-5-5-5---------||
|-5-5-5-5-5-5-5-5-8-8-8-8-||-7-7-7-7-7-7-7-7-8-8-8-8---------8-8-8-8-||
|-------------------------||-----------------------------------------||
|-------------------------||-----------------------------------------||


 8/4
  S S S S S S S S S S S S S S S S S S S S S S S S S S S S S S S S
|--------------------------------------------------------------------|
|--------------------------------------------------------------------|
|--------------------------------------------------------------------|
|-4-4-4-4-4-4-4-4-4-4-4-4-4-4-4-4-1-1-1-1-1-1-1-1-1-1-1-1-1-1-1-1----|
|--------------------------------------------------------------------|
|--------------------------------------------------------------------|
|
| S S S S S S S S S S S S S S S S S S S S S S S S S S S S S S S S
|--------------------------------------------------------------------|
|--------------------------------------------------------------------|
|--------------------------------------------------------------------|
|-7-7-7-7-7-7-7-7-7-7-7-7-7-7-7-7-4-4-4-4-4-4-4-4-4-4-4-4-4-4-4-4----|
|--------------------------------------------------------------------|
|--------------------------------------------------------------------|


 Post Chorus
 6/8                                2/4
  Gtrs I, II
   PM----|     PM---------|     PM
   S S E E E E E    S S E E E E E    E E E E
|----------------|----------------||---------|
|----------------|----------------||---------|
|----------------|----------------||---------|
|----------------|----------------||---------|
|----------9s8---|----------9s8---||-8s7-8s7-|
|-10-7-0-0-7s6-0-|-10-7-0-0-7s6-0-||-6s5-6s5-|


   Outro
    Faster Q=220
   4/4
    PM------------|        PM|    PM|      PM|    PM|   PM
    E E E E E E E E  3x Q  S S Q  S S Q    S S Q  S S E E Q
||-------------------||------------------|--------------------*|
||o-----------------o||------------------|--------------------*|
||-------------------||------------------|--------------------*|
||-------------------||------------------|--------------------*|
||o-----------------o||-8------9------8--|-----9------8---8\--*|
||--3-0-6-0-9-8-6-0--||-6--0-0-7--0-0-6--|-0-0-7--0-0-6-0-6\--*| 

End.
comments
We did not receive enough feedback on this tab! Please rate:
print report bad tab
1 2 3 4 5
I want to post or [tab]
guest
You may want to rate the tab now too:
select rating
Please do not post tabs as comments. Select "correction" instead!