Oops, an error
Loading. Please wait.

Frantic Disembowelment Tab

ver2
ver2

Whole song

More versions @911Tabs.com
6,310 views 33 this week
2 commentsread comments
1 2 3 4 5
accurate
x 3
Autoscroll
+/-
esc
set tempo
stop
Contributor
WARNING: You are trying to view
                                    content from Ultimate-Guitar.com
                                    in an unauthorized application,
                                    which is prohibited.

                                    Please use an official Ultimate
                                    Guitar Tabs application for iPhone,
                                    iPad or Android to access legitimate
                                    chords, guitar, bass, and drum tabs
                                    from Ultimate-Guitar.com database.

                                    Type "ultimate guitar tabs" in Apple
                                    App Store's or Android Market's
                                    search to find the application.
                     |---3---|     |---3---|               |---3---|   
      Q    Q    Q    E   E   E     E   E   E  E  S S E  E  E   E   E   
A#||----------------------------|-------------------------------------|
F ||----------------------------|-------------------------------------|
C#||----------------------------|----------------5-6-6----------------|
G#||----------------------------|-------------4---------5-------------|
D#||----------------------------|-------------------------------------|
A#||-----------------3h--6p--3--|--2h--5p--2---------------3h--6p--3--|


  |---3---|               |---3---|     |---3---|               |---3---|   
  E   E   E  E  S S E  E  E   E   E     E   E   E  E  S S E  E  E   E   E   
-------------------------------------|-------------------------------------|
-------------------------------------|-------------------------------------|
----------------5-6-6----------------|----------------5-6-6----------------|
-------------4---------5-------------|-------------4---------5-------------|
-------------------------------------|-------------------------------------|
--2h--5p--2---------------3h--6p--3--|--2h--5p--2---------------3h--6p--3--|


  |---3---|               |---3---|     |---3---|               |---3---|   
  E   E   E  E  S S E  E  E   E   E     E   E   E  E  S S E  E  E   E   E   
-------------------------------------|-------------------------------------|
-------------------------------------|-------------------------------------|
----------------5-6-6----------------|----------------5-6-6----------------|
-------------4-----------------------|-------------4-----------------------|
-------------------------------------|-------------------------------------|
--2h--5p--2------------3--3h--6p--3--|--2h--5p--2------------3--3h--6p--3--|


  |---3---|               |---3---|     |---3---|               |---3---|   
  E   E   E  E  S S E  E  E   E   E     E   E   E  E  S S E  E  E   E   E   
-------------------------------------|-------------------------------------|
-------------------------------------|-------------------------------------|
----------------5-6-6----------------|----------------5-6-6----------------|
-------------4-----------------------|-------------4-----------------------|
-------------------------------------|-------------------------------------|
--2h--5p--2------------3--3h--6p--3--|--2h--5p--2------------3--3h--6p--3--|


  |---3---|               |---3---|     |---3---|               |---3---|   
  E   E   E  E  S S E  E  E   E   E     E   E   E  E  S S E  E  E   E   E   
-------------------------------------|-------------------------------------|
-------------------------------------|-------------------------------------|
----------------5-6-6----------------|----------------5-6-6----------------|
-------------4-----------------------|-------------4-----------------------|
-------------------------------------|-------------------------------------|
--2h--5p--2------------3--3h--6p--3--|--2h--5p--2------------3--3h--6p--3--|


  |---3---|               |---3---|     |---3---|               |---3---|   
  E   E   E  E  S S E  E  E   E   E     E   E   E  E  S S E  E  E   E   E   
-------------------------------------|-------------------------------------|
-------------------------------------|-------------------------------------|
----------------5-6-6----------------|----------------5-6-6----------------|
-------------4-----------------------|-------------4-----------------------|
-------------------------------------|-------------------------------------|
--2h--5p--2------------3--3h--6p--3--|--2h--5p--2------------3--3h--6p--3--|


  E  E  E  E  E  E  E  E     E  E  E  E  E  E  E  E   
--------------------------|--------------------------|
--------------------------|--------------------------|
--------------------------|--------------------------|
--8-----------9-----9-----|--------8-----5-----------|
--------7--8-----5--------|--8--7-----5--------4--5--|
-----6-----------------6--|-----------------3--------|


                             |---3---|  |---3---|                
  E  E  E  E  E  E  E  E     E   E   E  E   E   E  E  S S E  E   
--------------------------|-------------------------------------|
--------------------------|-------------------------------------|
--------------------------|---------------------------5-6-6-----|
--6-----6-----------5-----|------------------------4------------|
-----2--------5--4-----1--|-------------------------------------|
-----------3--------------|--3h--6p--3--2h--5p--2------------3--|


  |---3---|  |---3---|                  |---3---|  |---3---|                
  E   E   E  E   E   E  E  S S E  E     E   E   E  E   E   E  E  S S E  E   
-------------------------------------|-------------------------------------|
-------------------------------------|-------------------------------------|
---------------------------5-6-6-----|---------------------------5-6-6-----|
------------------------4------------|------------------------4------------|
-------------------------------------|-------------------------------------|
--3h--6p--3--2h--5p--2------------3--|--3h--6p--3--2h--5p--2------------3--|


  |---3---|  |---3---|                  |---3---|                     
  E   E   E  E   E   E  E  S S E  E     E   E   E  E  E  E  E  E  E   
-------------------------------------|-------------------------------|
-------------------------------------|-------------------------------|
---------------------------5-6-6-----|-------------------------------|
------------------------4------------|-------------8-----------9-----|
-------------------------------------|-------------------7--8-----5--|
--3h--6p--3--2h--5p--2------------3--|--3h--6p--3-----6--------------|


  E  E  E  E  E  E  E  E     E  E  E  E  E  E  E  E   
--------------------------|--------------------------|
--------------------------|--------------------------|
--------------------------|--------------------------|
--9-----------8-----5-----|--------6-----6-----------|
--------8--7-----5--------|--4--5-----2--------5--4--|
-----6-----------------3--|-----------------3--------|


        |---3---|  |---3---|                  |---3---|  |---3---|          
  E  E  E   E   E  E   E   E  E  S S    E  E  E   E   E  E   E   E  E  S S  
-------------------------------------|-------------------------------------|
-------------------------------------|-------------------------------------|
---------------------------------5-6-|--6------------------------------5-6-|
--5---------------------------4------|------------------------------4------|
-----1-------------------------------|-------------------------------------|
--------3h--6p--3--2h--5p--2---------|-----3--3h--6p--3--2h--5p--2---------|


        |---3---|  |---3---|                  |---3---|  |---3---|          
  E  E  E   E   E  E   E   E  E  S S    E  E  E   E   E  E   E   E  E  S S  
-------------------------------------|-------------------------------------|
-------------------------------------|-------------------------------------|
--6------------------------------5-6-|--6------------------------------5-6-|
------------------------------4------|------------------------------4------|
-------------------------------------|-------------------------------------|
-----3--3h--6p--3--2h--5p--2---------|-----3--3h--6p--3--2h--5p--2---------|


        |---3---|  |---3---|  |--3--|   
  E  E  E   E   E  E   E   E  E  E  E   
---------------------------------------|
---------------------------------------|
--6------------------------------------|
---------------------------------------|
------------------------------7--7--7--|
-----3--6h--9p--6--5h--8p--5-----------|


  |--3--|  |---3---|  |---3---|  |--3--|   
  E  E  E  E   E   E  E   E   E  E  E  E   
------------------------------------------|
------------------------------------------|
------------------------------------------|
------------------------------------------|
--8--8--8------------------------7--7--7--|
-----------6h--9p--6--5h--8p--5-----------|


  |--3--|  |---3---|  |---3---|  |--3--|   
  E  E  E  E   E   E  E   E   E  E  E  E   
------------------------------------------|
------------------------------------------|
------------------------------------------|
------------------------------------------|
--8--8--8------------------------7--7--7--|
-----------6h--9p--6--5h--8p--5-----------|


  |--3--|  |---3---|  |---3---|  |--3--|     |--3--|  |---3---|             
  E  E  E  E   E   E  E   E   E  E  E  E     E  E  E  E   E   E  Q    Q     
------------------------------------------|--------------------------------|
------------------------------------------|--------------------------------|
------------------------------------------|--------------------------------|
------------------------------------------|----------------------7----6----|
--8--8--8------------------------7--7--7--|--8--8--8-------------5----4----|
-----------6h--9p--6--5h--8p--5-----------|-----------5h--6p--5------------|


                    |--3--|     |--3--|               |--3--|   
  Q    E  S S E  E  E  E  E     E  E  E  E  S S E  E  E  E  E   
-----------------------------|---------------------------------|
-----------------------------|---------------------------------|
----------5-6-6--------------|--------------5-6-6--------------|
-------4---------5-----------|-----------4---------5-----------|
-----------------------------|---------------------------------|
--2-----------------3--6--3--|--2--5--2---------------3--6--3--|


  |--3--|               |--3--|     |---3---|               |---3---|   
  E  E  E  E  S S E  E  E  E  E     E   E   E  E  S S E  E  E   E   E   
---------------------------------|-------------------------------------|
---------------------------------|-------------------------------------|
--------------5-6-6--------------|----------------5-6-6----------------|
-----------4---------5-----------|-------------4-----------------------|
---------------------------------|-------------------------------------|
--2--5--2---------------3--6--3--|--2h--5p--2------------3--3h--6p--3--|


  |---3---|               |---3---|     |---3---|               |---3---|   
  E   E   E  E  S S E  E  E   E   E     E   E   E  E  S S E  E  E   E   E   
-------------------------------------|-------------------------------------|
-------------------------------------|-------------------------------------|
----------------5-6-6----------------|----------------5-6-6----------------|
-------------4-----------------------|-------------4-----------------------|
-------------------------------------|-------------------------------------|
--2h--5p--2------------3--3h--6p--3--|--2h--5p--2------------3--3h--6p--3--|


  |---3---|               |---3---|     |---3---|               |---3---|   
  E   E   E  E  S S E  E  E   E   E     E   E   E  E  S S E  E  E   E   E   
-------------------------------------|-------------------------------------|
-------------------------------------|-------------------------------------|
----------------5-6-6----------------|----------------5-6-6----------------|
-------------4-----------------------|-------------4-----------------------|
-------------------------------------|-------------------------------------|
--2h--5p--2------------3--3h--6p--3--|--2h--5p--2------------3--3h--6p--3--|


  |---3---|               |---3---|     |---3---|               |---3---|   
  E   E   E  E  S S E  E  E   E   E     E   E   E  E  S S E  E  E   E   E   
-------------------------------------|-------------------------------------|
-------------------------------------|-------------------------------------|
----------------5-6-6----------------|----------------5-6-6----------------|
-------------4-----------------------|-------------4-----------------------|
-------------------------------------|-------------------------------------|
--2h--5p--2------------3--3h--6p--3--|--2h--5p--2------------3--3h--6p--3--|


  |---3---|               |---3---|                              
  E   E   E  E  S S E  E  E   E   E     E  E  E  E  E  E  E  E   
-------------------------------------|--------------------------|
-------------------------------------|--------------------------|
----------------5-6-6----------------|--------------------------|
-------------4-----------------------|--8-----------9-----9-----|
-------------------------------------|--------7--8-----5--------|
--2h--5p--2------------3--3h--6p--3--|-----6-----------------6--|


  E  E  E  E  E  E  E  E     E  E  E  E  E  E  E  E   
--------------------------|--------------------------|
--------------------------|--------------------------|
--------------------------|--------------------------|
--------8-----5-----------|--6-----6-----------5-----|
--8--7-----5--------4--5--|-----2--------5--4-----1--|
-----------------3--------|-----------3--------------|


  |---3---|  |---3---|                  |---3---|  |---3---|                
  E   E   E  E   E   E  E  S S E  E     E   E   E  E   E   E  E  S S E  E   
-------------------------------------|-------------------------------------|
-------------------------------------|-------------------------------------|
---------------------------5-6-6-----|---------------------------5-6-6-----|
------------------------4------------|------------------------4------------|
-------------------------------------|-------------------------------------|
--3h--6p--3--2h--5p--2------------3--|--3h--6p--3--2h--5p--2------------3--|


  |---3---|  |---3---|                  |---3---|  |---3---|                
  E   E   E  E   E   E  E  S S E  E     E   E   E  E   E   E  E  S S E  E   
-------------------------------------|-------------------------------------|
-------------------------------------|-------------------------------------|
---------------------------5-6-6-----|---------------------------5-6-6-----|
------------------------4------------|------------------------4------------|
-------------------------------------|-------------------------------------|
--3h--6p--3--2h--5p--2------------3--|--3h--6p--3--2h--5p--2------------3--|


  |---3---|                                                
  E   E   E  E  E  E  E  E  E     E  E  E  E  E  E  E  E   
-------------------------------|--------------------------|
-------------------------------|--------------------------|
-------------------------------|--------------------------|
-------------8-----------9-----|--9-----------8-----5-----|
-------------------7--8-----5--|--------8--7-----5--------|
--3h--6p--3-----6--------------|-----6-----------------3--|


                                   |---3---|  |---3---|          
  E  E  E  E  E  E  E  E     E  E  E   E   E  E   E   E  E  S S  
--------------------------|-------------------------------------|
--------------------------|-------------------------------------|
--------------------------|---------------------------------5-6-|
--------6-----6-----------|--5---------------------------4------|
--4--5-----2--------5--4--|-----1-------------------------------|
-----------------3--------|--------3h--6p--3--2h--5p--2---------|


        |---3---|  |---3---|                  |---3---|  |---3---|          
  E  E  E   E   E  E   E   E  E  S S    E  E  E   E   E  E   E   E  E  S S  
-------------------------------------|-------------------------------------|
-------------------------------------|-------------------------------------|
--6------------------------------5-6-|--6------------------------------5-6-|
------------------------------4------|------------------------------4------|
-------------------------------------|-------------------------------------|
-----3--3h--6p--3--2h--5p--2---------|-----3--3h--6p--3--2h--5p--2---------|


        |---3---|  |---3---|                  |---3---|  |---3---|  |--3--|   
  E  E  E   E   E  E   E   E  E  S S    E  E  E   E   E  E   E   E  E  E  E   
-------------------------------------|---------------------------------------|
-------------------------------------|---------------------------------------|
--6------------------------------5-6-|--6------------------------------------|
------------------------------4------|---------------------------------------|
-------------------------------------|------------------------------7--7--7--|
-----3--3h--6p--3--2h--5p--2---------|-----3--6h--9p--6--5h--8p--5-----------|


  |--3--|  |---3---|  |---3---|  |--3--|   
  E  E  E  E   E   E  E   E   E  E  E  E   
------------------------------------------|
------------------------------------------|
------------------------------------------|
------------------------------------------|
--8--8--8------------------------7--7--7--|
-----------6h--9p--6--5h--8p--5-----------|


  |--3--|  |---3---|  |---3---|  |--3--|   
  E  E  E  E   E   E  E   E   E  E  E  E   
------------------------------------------|
------------------------------------------|
------------------------------------------|
------------------------------------------|
--8--8--8------------------------7--7--7--|
-----------6h--9p--6--5h--8p--5-----------|


  |--3--|  |---3---|  |---3---|  |--3--|     |--3--|  |---3---|             
  E  E  E  E   E   E  E   E   E  E  E  E     E  E  E  E   E   E  Q    Q     
------------------------------------------|--------------------------------|
------------------------------------------|--------------------------------|
------------------------------------------|--------------------------------|
------------------------------------------|----------------------7----6----|
--8--8--8------------------------7--7--7--|--8--8--8-------------5----4----|
-----------6h--9p--6--5h--8p--5-----------|-----------5h--6p--5------------|


                    |---3---|     |---3---|                   
  E  E  E  E  E  E  E   E   E     E   E   E  Q    Q    E  E   
-------------------------------|-----------------------------|
-------------------------------|-----------------------------|
-----3--4----------------------|--------------------------3--|
--5--------3--5--6-------------|-------------7----6----5-----|
-------------------------------|-------------5----4----------|
--------------------3h--4p--3--|--6h--7p--6------------------|


              |---3---|  |---3---|                            
  E  E  E  E  E   E   E  E   E   E     Q    Q    E  E  E  E   
------------------------------------|------------------------|
------------------------------------|------------------------|
--4---------------------------------|---------------3--4-----|
-----3--5--6------------------------|--7----6----5--------3--|
------------------------------------|--5----4----------------|
--------------3h--4p--3--6h--7p--6--|--5----4----------------|


        |---3---|  |---3---|                                  
  E  E  E   E   E  E   E   E  Q       Q    E  E  E  E  E  E   
-----------------------------------|-------------------------|
-----------------------------------|-------------------------|
-----------------------------------|----------3--4-----------|
--5--6------------------------7----|--6----5--------3--5--6--|
------------------------------5----|--4----------------------|
--------3h--4p--3--6h--7p--6--5----|--4----------------------|


  |---3---|  |---3---|                                           
  E   E   E  E   E   E  E  E  E  E     E  E  E  E  E   E  E  E   
------------------------------------|---------------------------|
------------------------------------|---------------------------|
------------------------------------|---------------------------|
------------------------2-----2-----|--2-----2---------------2--|
------------------------2-----2-----|--2-----2-----5---4--------|
--3h--4p--3--6h--7p--6--0-----0-----|--0-----0-----3s--2--0-----|


                                 |---3---|                         
  E   E  E   E  E   E  E   E     E   E   E  E  E  E    E   E   E   
------------------------------|-----------------------------------|
------------------------------|-----------------------------------|
------------------------------|-----------------------------------|
--4s--9----------------7---6--|-------------------8---10----------|
--2s--7--7------8------5s--4--|--7---8---7--8-----6s---8--10---9--|
---------5p--0--6p--0---------|--5s--6s--5--6--0-----------8s--7--|


                                              |---3---|         
  E   E  E  E  E   E  E   E     E   E  E   E  E   E   E  E  E   
-----------------------------|---------------------------------|
-----------------------------|---------------------------------|
-----------------------------|---------------------------------|
------------2--4s--9---------|---------7---6-------------------|
--5---4--------2s--7--7------|--8------5s--4--7---8---7--8-----|
--3s--2--0------------5p--0--|--6p--0---------5s--6s--5--6--0--|


  E    E   E   E  E   E  E  E     E  E  E  E  E  E  E  E   
-------------------------------|--------------------------|
-------------------------------|--------------------------|
-------------------------------|--------------------------|
--8---10--------------------2--|--2-----2-----2-----2-----|
--6s---8--10---9--5---4--------|--2-----2-----2-----2-----|
-----------8s--7--3s--2--0-----|--0-----0-----0-----0-----|


                                              |---3---|         
  E   E  E  E  E   E  E   E     E   E  E   E  E   E   E  E  E   
-----------------------------|---------------------------------|
-----------------------------|---------------------------------|
-----------------------------|---------------------------------|
------------2--4s--9---------|---------7---6-------------------|
--5---4--------2s--7--7------|--8------5s--4--7---8---7--8-----|
--3s--2--0------------5p--0--|--6p--0---------5s--6s--5--6--0--|


  E    E   E   E  E   E  E  E     E   E  E   E  E   E  E   E   
-------------------------------|------------------------------|
-------------------------------|------------------------------|
-------------------------------|------------------------------|
--8---10--------------------2--|--4s--9----------------7---6--|
--6s---8--10---9--5---4--------|--2s--7--7------8------5s--4--|
-----------8s--7--3s--2--0-----|---------5p--0--6p--0---------|


  |---3---|                                                     
  E   E   E  E  E  E    E   E   E     E   E  E  E  E  E  E  E   
-----------------------------------|---------------------------|
-----------------------------------|---------------------------|
-----------------------------------|---------------------------|
-------------------8---10----------|------------2--2-----2-----|
--7---8---7--8-----6s---8--10---9--|--5---4--------2-----2-----|
--5s--6s--5--6--0-----------8s--7--|--3s--2--0-----0-----0-----|


                                                   |----3---|   
  E  E  E  E  E  E  E  E      E  E  E   E   E   E  E    E   E   
--------------------------|------------------------------------|
--------------------------|------------------------------------|
--------------------------|------------------------------------|
--2-----2-----------------|------------------------------------|
--2-----2-----8--------8--|--10--------10--11------------------|
--0-----0--------7--6-----|------9--8----------10--8h--11p--8--|


  |---3---|  |---3---|  |---3---|  |---3---|   
  E   E   E  E   E   E  E   E   E  E   E   E   
----------------------------------------------|
----------------------------------------------|
----------------------------------------------|
----------------------------------------------|
-------------5h--8p--5--6h--9p--6-------------|
--6h--9p--6------------------------3h--6p--3--|


  |---3---|  |---3---|                                       |----3---|   
  E   E   E  E   E   E  E  E  E  E      E  E  E   E   E   E  E    E   E   
------------------------------------|------------------------------------|
------------------------------------|------------------------------------|
------------------------------------|------------------------------------|
------------------------------------|------------------------------------|
--2h--5p--2--3h--6p--3--8--------8--|--10--------10--11------------------|
---------------------------7--6-----|------9--8----------10--8h--11p--8--|


  |---3---|  |---3---|  |---3---|  |---3---|   
  E   E   E  E   E   E  E   E   E  E   E   E   
----------------------------------------------|
----------------------------------------------|
----------------------------------------------|
----------------------------------------------|
-------------5h--8p--5--6h--9p--6-------------|
--6h--9p--6------------------------3h--6p--3--|


  |---3---|  |---3---|                                       |----3---|   
  E   E   E  E   E   E  E  E  E  E      E  E  E   E   E   E  E    E   E   
------------------------------------|------------------------------------|
------------------------------------|------------------------------------|
------------------------------------|------------------------------------|
------------------------------------|------------------------------------|
--2h--5p--2--3h--6p--3--8--------8--|--10--------10--11------------------|
---------------------------7--6-----|------9--8----------10--8h--11p--8--|


  |---3---|  |---3---|  |---3---|  |---3---|   
  E   E   E  E   E   E  E   E   E  E   E   E   
----------------------------------------------|
----------------------------------------------|
----------------------------------------------|
----------------------------------------------|
-------------5h--8p--5--6h--9p--6-------------|
--6h--9p--6------------------------3h--6p--3--|


  |---3---|  |---3---|                                       |----3---|   
  E   E   E  E   E   E  E  E  E  E      E  E  E   E   E   E  E    E   E   
------------------------------------|------------------------------------|
------------------------------------|------------------------------------|
------------------------------------|------------------------------------|
------------------------------------|------------------------------------|
--2h--5p--2--3h--6p--3--8--------8--|--10--------10--11------------------|
---------------------------7--6-----|------9--8----------10--8h--11p--8--|


  |---3---|  |---3---|  |---3---|  |---3---|   
  E   E   E  E   E   E  E   E   E  E   E   E   
----------------------------------------------|
----------------------------------------------|
----------------------------------------------|
----------------------------------------------|
-------------5h--8p--5--6h--9p--6-------------|
--6h--9p--6------------------------3h--6p--3--|


  |---3---|  |---3---|                                           
  E   E   E  E   E   E  E  E  E  E     E  E  E  E  E   E  E  E   
------------------------------------|---------------------------|
------------------------------------|---------------------------|
------------------------------------|---------------------------|
------------------------2-----2-----|--2-----2---------------2--|
--2h--5p--2--3h--6p--3--2-----2-----|--2-----2-----5---4--------|
------------------------0-----0-----|--0-----0-----3s--2--0-----|


                                 |---3---|                         
  E   E  E   E  E   E  E   E     E   E   E  E  E  E    E   E   E   
------------------------------|-----------------------------------|
------------------------------|-----------------------------------|
------------------------------|-----------------------------------|
--4s--9----------------7---6--|-------------------8---10----------|
--2s--7--7------8------5s--4--|--7---8---7--8-----6s---8--10---9--|
---------5p--0--6p--0---------|--5s--6s--5--6--0-----------8s--7--|


                                              |---3---|         
  E   E  E  E  E   E  E   E     E   E  E   E  E   E   E  E  E   
-----------------------------|---------------------------------|
-----------------------------|---------------------------------|
-----------------------------|---------------------------------|
------------2--4s--9---------|---------7---6-------------------|
--5---4--------2s--7--7------|--8------5s--4--7---8---7--8-----|
--3s--2--0------------5p--0--|--6p--0---------5s--6s--5--6--0--|


  E    E   E   E  E   E  E  E     E  E  E  E  E  E  E  E   
-------------------------------|--------------------------|
-------------------------------|--------------------------|
-------------------------------|--------------------------|
--8---10--------------------2--|--2-----2-----2-----2-----|
--6s---8--10---9--5---4--------|--2-----2-----2-----2-----|
-----------8s--7--3s--2--0-----|--0-----0-----0-----0-----|


                                              |---3---|         
  E   E  E  E  E   E  E   E     E   E  E   E  E   E   E  E  E   
-----------------------------|---------------------------------|
-----------------------------|---------------------------------|
-----------------------------|---------------------------------|
------------2--4s--9---------|---------7---6-------------------|
--5---4--------2s--7--7------|--8------5s--4--7---8---7--8-----|
--3s--2--0------------5p--0--|--6p--0---------5s--6s--5--6--0--|


  E    E   E   E  E   E  E  E     E   E  E   E  E   E  E   E   
-------------------------------|------------------------------|
-------------------------------|------------------------------|
-------------------------------|------------------------------|
--8---10--------------------2--|--4s--9----------------7---6--|
--6s---8--10---9--5---4--------|--2s--7--7------8------5s--4--|
-----------8s--7--3s--2--0-----|---------5p--0--6p--0---------|


  |---3---|                                                     
  E   E   E  E  E  E    E   E   E     E   E  E  E  E  E  E  E   
-----------------------------------|---------------------------|
-----------------------------------|---------------------------|
-----------------------------------|---------------------------|
-------------------8---10----------|------------2--2-----2-----|
--7---8---7--8-----6s---8--10---9--|--5---4--------2-----2-----|
--5s--6s--5--6--0-----------8s--7--|--3s--2--0-----0-----0-----|


                              |---3---|   |---3---|  |---3---|   |---3---|   
  E  E  E  E  S S S S Q       E   E   E   E   E   E  E   E   E   E   E   E   
--------------0-L-L-L-L----|------------------------------------------------|
----------------4-L-L-L----|------------------------------------------------|
------------------5-L-L----|------------------------------------------------|
--2-----2-----------7-L----|------------------------------------------------|
--2-----2-----------0------|--3h--6p--3h--6p--3h--6-------------------------|
--0-----0------------------|-------------------------2h--5p--2h--5p--2h--5--|


                                          |---3---|   |---3---|   
  E  E  E  E  E  E  E  E     S S S S Q    E   E   E   E   E   E   
--------------------------|--0-L-L-L-L---------------------------|
--------------------------|----4-L-L-L---------------------------|
--------------------------|------5-L-L---------------------------|
--2-----2-----2-----2-----|--------7-L---------------------------|
--0-----0-----0-----0-----|--------0------3h--6p--3h--6p--3h--6--|
--------------------------|--------------------------------------|


  |---3---|   |---3---|                                           
  E   E   E   E   E   E  E  E  E  E     E  E  E  E  S S S S Q     
-------------------------------------|--------------0-L-L-L-L----|
-------------------------------------|----------------4-L-L-L----|
-------------------------------------|------------------5-L-L----|
-------------------------2-----2-----|--2-----2-----------7-L----|
-------------------------0-----0-----|--0-----0-----------0------|
--2h--5p--2h--5p--2h--5--------------|---------------------------|


  |---3---|   |---3---|  |---3---|   |---3---|                              
  E   E   E   E   E   E  E   E   E   E   E   E     E  E  E  E  E  E  E  E   
------------------------------------------------|--------------------------|
------------------------------------------------|--------------------------|
------------------------------------------------|--------------------------|
------------------------------------------------|--2-----2-----2-----2-----|
--3h--6p--3h--6p--3h--6-------------------------|--0-----0-----0-----0-----|
-------------------------2h--5p--2h--5p--2h--5--|--------------------------|


               |---3---|   |---3---|     |---3---|   |---3---|               
  S S S S Q    E   E   E   E   E   E     E   E   E   E   E   E  E  E  E  E   
--0-L-L-L-L---------------------------|-------------------------------------|
----4-L-L-L---------------------------|-------------------------------------|
------5-L-L---------------------------|-------------------------------------|
--------7-L---------------------------|-------------------------2-----2-----|
--------0------3h--6p--3h--6p--3h--6--|-------------------------0-----0-----|
--------------------------------------|--2h--5p--2h--5p--2h--5--------------|


                              |---3---|   |---3---|  |---3---|   |---3---|   
  E  E  E  E  S S S S Q       E   E   E   E   E   E  E   E   E   E   E   E   
--------------0-L-L-L-L----|------------------------------------------------|
----------------4-L-L-L----|------------------------------------------------|
------------------5-L-L----|------------------------------------------------|
--2-----2-----------7-L----|------------------------------------------------|
--0-----0-----------0------|--3h--6p--3h--6p--3h--6-------------------------|
---------------------------|-------------------------2h--5p--2h--5p--2h--5--|


                                          |---3---|   |---3---|   
  E  E  E  E  E  E  E  E     S S S S Q    E   E   E   E   E   E   
--------------------------|--0-L-L-L-L---------------------------|
--------------------------|----4-L-L-L---------------------------|
--------------------------|------5-L-L---------------------------|
--2-----2-----2-----2-----|--------7-L---------------------------|
--0-----0-----0-----0-----|--------0------3h--6p--3h--6p--3h--6--|
--------------------------|--------------------------------------|


  |---3---|   |---3---|                                           
  E   E   E   E   E   E  E  E  E  E     E  E  E  E  S S S S Q     
-------------------------------------|--------------0-L-L-L-L----|
-------------------------------------|----------------4-L-L-L----|
-------------------------------------|------------------5-L-L----|
-------------------------2-----2-----|--2-----2-----------7-L----|
-------------------------0-----0-----|--0-----0-----------0------|
--2h--5p--2h--5p--2h--5--------------|---------------------------|


  |---3---|   |---3---|  |---3---|   |---3---|                              
  E   E   E   E   E   E  E   E   E   E   E   E     E  E  E  E  E  E  E  E   
------------------------------------------------|--------------------------|
------------------------------------------------|--------------------------|
------------------------------------------------|--------------------------|
------------------------------------------------|--2-----2-----2-----2-----|
--3h--6p--3h--6p--3h--6-------------------------|--0-----0-----0-----0-----|
-------------------------2h--5p--2h--5p--2h--5--|--------------------------|


               |---3---|   |---3---|     |---3---|   |---3---|               
  S S S S Q    E   E   E   E   E   E     E   E   E   E   E   E  E  E  E  E   
--0-L-L-L-L---------------------------|-------------------------------------|
----4-L-L-L---------------------------|-------------------------------------|
------5-L-L---------------------------|-------------------------------------|
--------7-L---------------------------|-------------------------2-----2-----|
--------0------3h--6p--3h--6p--3h--6--|-------------------------0-----0-----|
--------------------------------------|--2h--5p--2h--5p--2h--5--------------|


                              |---3---|   |---3---|  |---3---|   |---3---|   
  E  E  E  E  S S S S Q       E   E   E   E   E   E  E   E   E   E   E   E   
--------------0-L-L-L-L----|------------------------------------------------|
----------------4-L-L-L----|------------------------------------------------|
------------------5-L-L----|------------------------------------------------|
--2-----2-----------7-L----|------------------------------------------------|
--0-----0-----------0------|--3h--6p--3h--6p--3h--6-------------------------|
---------------------------|-------------------------2h--5p--2h--5p--2h--5--|


  E  E  E  E  E  E  E  E     E  E  E  E   E  E  E   E   
--------------------------|----------------------------|
--------------------------|----------------------------|
--------------------------|----------------------------|
--------------------------|----------------------------|
--2-----2-----2-----2-----|--8--------8--10--------10--|
--0-----0-----0-----0-----|-----7--6---------9--8------|


          |----3---|  |---3---|  |---3---|   
   E   E  E    E   E  E   E   E  E   E   E   
--------------------------------------------|
--------------------------------------------|
--------------------------------------------|
--------------------------------------------|
--11-----------------------------5h--8p--5--|
------10--8h--11p--8--6h--9p--6-------------|


  |---3---|  |---3---|  |---3---|  |---3---|                                
  E   E   E  E   E   E  E   E   E  E   E   E     E  E  E  E   E  E  E   E   
----------------------------------------------|----------------------------|
----------------------------------------------|----------------------------|
----------------------------------------------|----------------------------|
----------------------------------------------|----------------------------|
--6h--9p--6-------------2h--5p--2--3h--6p--3--|--8--------8--10--------10--|
-------------3h--6p--3------------------------|-----7--6---------9--8------|


          |----3---|  |---3---|  |---3---|   
   E   E  E    E   E  E   E   E  E   E   E   
--------------------------------------------|
--------------------------------------------|
--------------------------------------------|
--------------------------------------------|
--11-----------------------------5h--8p--5--|
------10--8h--11p--8--6h--9p--6-------------|


  |---3---|  |---3---|  |---3---|  |---3---|                                
  E   E   E  E   E   E  E   E   E  E   E   E     E  E  E  E   E  E  E   E   
----------------------------------------------|----------------------------|
----------------------------------------------|----------------------------|
----------------------------------------------|----------------------------|
----------------------------------------------|----------------------------|
--6h--9p--6-------------2h--5p--2--3h--6p--3--|--8--------8--10--------10--|
-------------3h--6p--3------------------------|-----7--6---------9--8------|


          |----3---|  |---3---|  |---3---|   
   E   E  E    E   E  E   E   E  E   E   E   
--------------------------------------------|
--------------------------------------------|
--------------------------------------------|
--------------------------------------------|
--11-----------------------------5h--8p--5--|
------10--8h--11p--8--6h--9p--6-------------|


  |---3---|  |---3---|  |---3---|  |---3---|                                
  E   E   E  E   E   E  E   E   E  E   E   E     E  E  E  E   E  E  E   E   
----------------------------------------------|----------------------------|
----------------------------------------------|----------------------------|
----------------------------------------------|----------------------------|
----------------------------------------------|----------------------------|
--6h--9p--6-------------2h--5p--2--3h--6p--3--|--8--------8--10--------10--|
-------------3h--6p--3------------------------|-----7--6---------9--8------|


          |----3---|  |---3---|  |---3---|   
   E   E  E    E   E  E   E   E  E   E   E   
--------------------------------------------|
--------------------------------------------|
--------------------------------------------|
--------------------------------------------|
--11-----------------------------5h--8p--5--|
------10--8h--11p--8--6h--9p--6-------------|


  |---3---|  |---3---|  |---3---|  |---3---|                       |---3---|   
  E   E   E  E   E   E  E   E   E  E   E   E     Q    E  S S E  E  E   E   E   
----------------------------------------------|-------------------------------|
----------------------------------------------|-------------------------------|
----------------------------------------------|----------5-6-6----------------|
----------------------------------------------|-------4---------5-------------|
--6h--9p--6-------------2h--5p--2--3h--6p--3--|-------------------------------|
-------------3h--6p--3------------------------|--2-----------------3h--6p--3--|


  |---3---|               |---3---|     |---3---|               |---3---|   
  E   E   E  E  S S E  E  E   E   E     E   E   E  E  S S E  E  E   E   E   
-------------------------------------|-------------------------------------|
-------------------------------------|-------------------------------------|
----------------5-6-6----------------|----------------5-6-6----------------|
-------------4---------5-------------|-------------4---------5-------------|
-------------------------------------|-------------------------------------|
--2h--5p--2---------------3h--6p--3--|--2h--5p--2---------------3h--6p--3--|


  |---3---|               |---3---|     |---3---|               |---3---|   
  E   E   E  E  S S E  E  E   E   E     E   E   E  E  S S E  E  E   E   E   
-------------------------------------|-------------------------------------|
-------------------------------------|-------------------------------------|
----------------5-6-6----------------|----------------5-6-6----------------|
-------------4-----------------------|-------------4-----------------------|
-------------------------------------|-------------------------------------|
--2h--5p--2------------3--3h--6p--3--|--2h--5p--2------------3--3h--6p--3--|


  |---3---|               |---3---|     |---3---|               |---3---|   
  E   E   E  E  S S E  E  E   E   E     E   E   E  E  S S E  E  E   E   E   
-------------------------------------|-------------------------------------|
-------------------------------------|-------------------------------------|
----------------5-6-6----------------|----------------5-6-6----------------|
-------------4-----------------------|-------------4-----------------------|
-------------------------------------|-------------------------------------|
--2h--5p--2------------3--3h--6p--3--|--2h--5p--2------------3--3h--6p--3--|


  |---3---|               |---3---|     |---3---|               |---3---|   
  E   E   E  E  S S E  E  E   E   E     E   E   E  E  S S E  E  E   E   E   
-------------------------------------|-------------------------------------|
-------------------------------------|-------------------------------------|
----------------5-6-6----------------|----------------5-6-6----------------|
-------------4-----------------------|-------------4-----------------------|
-------------------------------------|-------------------------------------|
--2h--5p--2------------3--3h--6p--3--|--2h--5p--2------------3--3h--6p--3--|


  |---3---|               |---3---|     |---3---|               |---3---|   
  E   E   E  E  S S E  E  E   E   E     E   E   E  E  S S E  E  E   E   E   
-------------------------------------|-------------------------------------|
-------------------------------------|-------------------------------------|
----------------5-6-6----------------|----------------5-6-6----------------|
-------------4-----------------------|-------------4-----------------------|
-------------------------------------|-------------------------------------|
--2h--5p--2------------3--3h--6p--3--|--2h--5p--2------------3--3h--6p--3--|


  E  E  E  E  E  E  E  E     E  E  E  E  E  E  E  E   
--------------------------|--------------------------|
--------------------------|--------------------------|
--------------------------|--------------------------|
--8-----------9-----9-----|--------8-----5-----------|
--------7--8-----5--------|--8--7-----5--------4--5--|
-----6-----------------6--|-----------------3--------|


                             |---3---|  |---3---|                
  E  E  E  E  E  E  E  E     E   E   E  E   E   E  E  S S E  E   
--------------------------|-------------------------------------|
--------------------------|-------------------------------------|
--------------------------|---------------------------5-6-6-----|
--6-----6-----------5-----|------------------------4------------|
-----2--------5--4-----1--|-------------------------------------|
-----------3--------------|--3h--6p--3--2h--5p--2------------3--|


  |---3---|  |---3---|                  |---3---|  |---3---|                
  E   E   E  E   E   E  E  S S E  E     E   E   E  E   E   E  E  S S E  E   
-------------------------------------|-------------------------------------|
-------------------------------------|-------------------------------------|
---------------------------5-6-6-----|---------------------------5-6-6-----|
------------------------4------------|------------------------4------------|
-------------------------------------|-------------------------------------|
--3h--6p--3--2h--5p--2------------3--|--3h--6p--3--2h--5p--2------------3--|


  |---3---|  |---3---|                  |---3---|                     
  E   E   E  E   E   E  E  S S E  E     E   E   E  E  E  E  E  E  E   
-------------------------------------|-------------------------------|
-------------------------------------|-------------------------------|
---------------------------5-6-6-----|-------------------------------|
------------------------4------------|-------------8-----------9-----|
-------------------------------------|-------------------7--8-----5--|
--3h--6p--3--2h--5p--2------------3--|--3h--6p--3-----6--------------|


  E  E  E  E  E  E  E  E     E  E  E  E  E  E  E  E   
--------------------------|--------------------------|
--------------------------|--------------------------|
--------------------------|--------------------------|
--9-----------8-----5-----|--------6-----6-----------|
--------8--7-----5--------|--4--5-----2--------5--4--|
-----6-----------------3--|-----------------3--------|


        |---3---|  |---3---|                  |---3---|  |---3---|          
  E  E  E   E   E  E   E   E  E  S S    E  E  E   E   E  E   E   E  E  S S  
-------------------------------------|-------------------------------------|
-------------------------------------|-------------------------------------|
---------------------------------5-6-|--6------------------------------5-6-|
--5---------------------------4------|------------------------------4------|
-----1-------------------------------|-------------------------------------|
--------3h--6p--3--2h--5p--2---------|-----3--3h--6p--3--2h--5p--2---------|


        |---3---|  |---3---|                  |---3---|  |---3---|          
  E  E  E   E   E  E   E   E  E  S S    E  E  E   E   E  E   E   E  E  S S  
-------------------------------------|-------------------------------------|
-------------------------------------|-------------------------------------|
--6------------------------------5-6-|--6------------------------------5-6-|
------------------------------4------|------------------------------4------|
-------------------------------------|-------------------------------------|
-----3--3h--6p--3--2h--5p--2---------|-----3--3h--6p--3--2h--5p--2---------|


        |---3---|  |---3---|  |--3--|   
  E  E  E   E   E  E   E   E  E  E  E   
---------------------------------------|
---------------------------------------|
--6------------------------------------|
---------------------------------------|
------------------------------7--7--7--|
-----3--6h--9p--6--5h--8p--5-----------|


  |--3--|  |---3---|  |---3---|  |--3--|   
  E  E  E  E   E   E  E   E   E  E  E  E   
------------------------------------------|
------------------------------------------|
------------------------------------------|
------------------------------------------|
--8--8--8------------------------7--7--7--|
-----------6h--9p--6--5h--8p--5-----------|


  |--3--|  |---3---|  |---3---|  |--3--|   
  E  E  E  E   E   E  E   E   E  E  E  E   
------------------------------------------|
------------------------------------------|
------------------------------------------|
------------------------------------------|
--8--8--8------------------------7--7--7--|
-----------6h--9p--6--5h--8p--5-----------|


  |--3--|  |---3---|  |---3---|  |--3--|     |--3--|  |---3---|             
  E  E  E  E   E   E  E   E   E  E  E  E     E  E  E  E   E   E  Q    Q     
------------------------------------------|--------------------------------|
------------------------------------------|--------------------------------|
------------------------------------------|--------------------------------|
------------------------------------------|----------------------7----6----|
--8--8--8------------------------7--7--7--|--8--8--8-------------5----4----|
-----------6h--9p--6--5h--8p--5-----------|-----------5h--6p--5------------|


                    |---3---|     |---3---|                   
  E  E  E  E  E  E  E   E   E     E   E   E  Q    Q    E  E   
-------------------------------|-----------------------------|
-------------------------------|-----------------------------|
-----3--4----------------------|--------------------------3--|
--5--------3--5--6-------------|-------------7----6----5-----|
-------------------------------|-------------5----4----------|
--------------------3h--4p--3--|--6h--7p--6------------------|


              |---3---|  |---3---|                            
  E  E  E  E  E   E   E  E   E   E     Q    Q    E  E  E  E   
------------------------------------|------------------------|
------------------------------------|------------------------|
--4---------------------------------|---------------3--4-----|
-----3--5--6------------------------|--7----6----5--------3--|
------------------------------------|--5----4----------------|
--------------3h--4p--3--6h--7p--6--|--5----4----------------|


        |---3---|  |---3---|                                  
  E  E  E   E   E  E   E   E  Q       Q    E  E  E  E  E  E   
-----------------------------------|-------------------------|
-----------------------------------|-------------------------|
-----------------------------------|----------3--4-----------|
--5--6------------------------7----|--6----5--------3--5--6--|
------------------------------5----|--4----------------------|
--------3h--4p--3--6h--7p--6--5----|--4----------------------|


  |---3---|  |---3---|                                                    
  E   E   E  E   E   E  E  E  E  E     E  E  E  E  H                      
------------------------------------|-----------------------|-----------||
------------------------------------|-----------------------|-----------||
------------------------------------|-----------------------|-----------||
------------------------2-----2-----|--2-----2--------------|-----------||
------------------------2-----2-----|--2-----2--------------|-----------||
--3h--4p--3--6h--7p--6--0-----0-----|--0-----0--------------|-----------||




Duration Legend
---------------
W - whole
H - half
Q - quarter
E - 8th
S - 16th
T - 32nd
X - 64th
. - note dotted
|-n-|  - n-tuplets


Tablature Legend
----------------
L - tied note
x - dead note
g - grace note
(n) - ghost note
> - accentuded note
NH - natural harmonic
AH - artificial harmonic
TH - tapped harmonic
SH - semi harmonic
PH - pitch harmonic
h - hammer on
p - pull off
b - bend
br - bendRelease
pb - preBend
pbr - preBendRelease
brb - bendReleaseBend
\n/ - tremolo bar dip
\n - tremolo bar dive
-/n - tremolo bar Release up
/n\ - tremolo bar inverted dip
/n - tremolo bar return
-\n - tremolo bar Release down
S - shift slide
s - legato slide
/ -  slide into from below or out of upwards
\ -  slide into from above or out of downwards
~ - vibrato
W - wide vibrato
tr - trill
TP - tremolo picking
T - tapping
S - slap
P - pop
< - fade in
^ - brush up
v - brush down
comments
We did not receive enough feedback on this tab! Please rate:
print report bad tab
1 2 3 4 5
2 comments total.
+2 reply
DyingToFish wrote on January 27 2009, 08:49 pm

great tab, the only thing is is that i have a "thing" bout having the entire song tabbed rather than just all the riffs listed in the song... but great tab! Keep supporting DEATH METAL \m/!!!!!

+1 reply
krallice wrote on March 9 2009, 03:37 pm

jesus this is hard to play. great tab

I want to post or [tab]
guest
You may want to rate the tab now too:
select rating
Please do not post tabs as comments. Select "correction" instead!