Oops, an error
Loading. Please wait.

Frantic Disembowelment Tab

ver3
ver3
More versions @911Tabs.com
7,355 views 24 this week
6 commentsread comments
1 2 3 4 5
excellent!
x 1
Autoscroll
+/-
esc
set tempo
stop
Contributor
Hey! There's an official Ultimate Guitar app which is ideal
for learning songs when you're away from computer. Get the app
WARNING: You are trying to view
                                    content from Ultimate-Guitar.com
                                    in an unauthorized application,
                                    which is prohibited.

                                    Please use an official Ultimate
                                    Guitar Tabs application for iPhone,
                                    iPad or Android to access legitimate
                                    chords, guitar, bass, and drum tabs
                                    from Ultimate-Guitar.com database.

                                    Type "ultimate guitar tabs" in Apple
                                    App Store's or Android Market's
                                    search to find the application.
Cannibal Corpse – Frantic Disembowelment
Bb||---------|------------------------|
F ||---------|------------------------|
Db||---------|---------5-5-6----------|
Ab||---------|-------4-------5--------|
Eb||---------|------------------------|
Bb||--3h6p3--|--2h5p2----------3h6p3--|

-------------------------|-------------------------|
-------------------------|-------------------------|
----------5-5-6----------|----------5-5-6----------|
--------4-------5--------|--------4-------5--------|
-------------------------|-------------------------|
--2h5p2-----------3h6p3--|--2h5p2-----------3h6p3--|

-------------------------|-------------------------|
-------------------------|-------------------------|
----------5-5-6----------|----------5-5-6----------|
--------4-------5--------|--------4-------5--------|
-------------------------|-------------------------|
--2h5p2-----------3h6p3--|--2h5p2-----------3h6p3--|

-------------------------|-------------------------|
-------------------------|-------------------------|
----------5-5-6----------|----------5-5-6----------|
--------4-------5--------|--------4-------5--------|
-------------------------|-------------------------|
--2h5p2-----------3h6p3--|--2h5p2-----------3h6p3--|

-------------------------|
-------------------------|
----------5-5-6----------|
--------4-------5--------|
-------------------------|
--2h5p2-----------3h6p3--|

-------------------|-------------------|-------------------|
-------------------|-------------------|-------------------|
-------------------|-------------------|-------------------|
--8-------9---9----|------8---5--------|--6---6-------5----|
------7-8---5------|--9-8---4-----3-4--|----2-----6-5---1--|
----6-----------6--|------------3------|--------3----------|
   PM----   -   ---------   -   -----       -   ----|
---------|-------------------------|
---------|-------------------------|
---------|----------5-5-6----------|
---------|--------4-------5--------|
---------|-------------------------|
--3h6p3--|--2h5p2-----------3h6p3--|

---------|-------------------|---------|-------------------|
---------|-------------------|---------|-------------------|
---------|----------5-5-6----|---------|----------5-5-6----|
---------|--------4-------5--|---------|--------4-------5--|
---------|-------------------|---------|-------------------|
--3h6p3--|--2h5p2------------|--3h6p3--|--2h5p2------------|

---------|-------------------|
---------|-------------------|
---------|----------5-5-6----|
---------|--------4-------5--|
---------|-------------------|
--3h6p3--|--2h5p2------------|

-------------------|-------------------|-------------------|
-------------------|-------------------|-------------------|
-------------------|-------------------|-------------------|
--8-------9---9----|------8---5--------|--6---6-------5----|
------7-8---5------|--9-8---4-----3-4--|----2-----6-5---1--|
----6-----------6--|------------3------|--------3----------|
   PM----   -   ---------   -   -----       -   ----|
---------|-------------------------|--------------------------|
---------|-------------------------|--------------------------|
---------|----------5-5-6----------|----------5-5-6-----------|
---------|--------4-------5--------|--------4-------5---------|
---------|-------------------------|--------------------------|
--3h6p3--|--2h5p2-----------3h6p3--|--2h5p2------------3h6p3--|

---------|-------------------------|-------------------------|
---------|-------------------------|-------------------------|
---------|----------5-5-6----------|----------5-5-6----------|
---------|--------4-------5--------|--------4-------5--------|
---------|-------------------------|-------------------------|
--3h6p3--|--2h5p2-----------3h6p3--|--2h5p2-----------3h6p3--|

--------------------------|--------------------------|--------------------------|
--------------------------|--------------------------|--------------------------|
--------------------------|--------------------------|--------------------------|
--------------------------|--------------------------|--------------------------|
--------5-7-7-/8-8--------|--------5-7-7-/8-8--------|--------5-7-7-/8-8--------|
--5h8p5------------6h9p6--|--5h8p5------------6h9p6--|--5h8p5------------6h9p6--|

--------------------------|--------|
--------------------------|--------|
--------------------------|--------|
--------------------------|--7--4--|
--------5-7-7-/8-8--------|--5--6--|
--5h8p5------------6h9p6--|--------|

---------|-------------------------|--------------------------|
---------|-------------------------|--------------------------|
---------|----------5-5-6----------|----------5-5-6-----------|
---------|--------4-------5--------|--------4-------5---------|
---------|-------------------------|--------------------------|
--3h6p3--|--2h5p2-----------3h6p3--|--2h5p2------------3h6p3--|

---------|-------------------------|-------------------------|
---------|-------------------------|-------------------------|
---------|----------5-5-6----------|----------5-5-6----------|
---------|--------4-------5--------|--------4-------5--------|
---------|-------------------------|-------------------------|
--3h6p3--|--2h5p2-----------3h6p3--|--2h5p2-----------3h6p3--|

---------|-------------------------|--------------------------|
---------|-------------------------|--------------------------|
---------|----------5-5-6----------|----------5-5-6-----------|
---------|--------4-------5--------|--------4-------5---------|
---------|-------------------------|--------------------------|
--3h6p3--|--2h5p2-----------3h6p3--|--2h5p2------------3h6p3--|

---------|-------------------------|-------------------------|
---------|-------------------------|-------------------------|
---------|----------5-5-6----------|----------5-5-6----------|
---------|--------4-------5--------|--------4-------5--------|
---------|-------------------------|-------------------------|
--3h6p3--|--2h5p2-----------3h6p3--|--2h5p2-----------3h6p3--|

-------------------|-------------------|-------------------|
-------------------|-------------------|-------------------|
-------------------|-------------------|-------------------|
--8-------9---9----|------8---5--------|--6---6-------5----|
------7-8---5------|--9-8---4-----3-4--|----2-----6-5---1--|
----6-----------6--|------------3------|--------3----------|
   PM----   -   ---------   -   -----       -   ----|
---------|-------------------------|--------------------------|
---------|-------------------------|--------------------------|
---------|----------5-5-6----------|----------5-5-6-----------|
---------|--------4-------5--------|--------4-------5---------|
---------|-------------------------|--------------------------|
--3h6p3--|--2h5p2-----------3h6p3--|--2h5p2------------3h6p3--|


---------|-------------------------|-------------------------|
---------|-------------------------|-------------------------|
---------|----------5-5-6----------|----------5-5-6----------|
---------|--------4-------5--------|--------4-------5--------|
---------|-------------------------|-------------------------|
--3h6p3--|--2h5p2-----------3h6p3--|--2h5p2-----------3h6p3--|

-------------------|-------------------|-------------------|
-------------------|-------------------|-------------------|
-------------------|-------------------|-------------------|
--8-------9---9----|------8---5--------|--6---6-------5----|
------7-8---5------|--9-8---4-----3-4--|----2-----6-5---1--|
----6-----------6--|------------3------|--------3----------|
   PM----   -   ---------   -   -----       -   ----|
--------------------------|--------------------------|--------------------------|
--------------------------|--------------------------|--------------------------|
--------------------------|--------------------------|--------------------------|
--------------------------|--------------------------|--------------------------|
--------5-7-7-/8-8--------|--------5-7-7-/8-8--------|--------5-7-7-/8-8--------|
--5h8p5------------6h9p6--|--5h8p5------------6h9p6--|--5h8p5------------6h9p6--|

--------------------------|--------|
--------------------------|--------|
--------------------------|--------|
--------------------------|--7--6--|
--------5-7-7-/8-8--------|--5--4--|
--5h8p5------------6h9p6--|--------|

---------------------------|--------|---------------------------|--------|
---------------------------|--------|---------------------------|--------|
------4-3------------------|--------|------4-3------------------|--------|
--5-6-----5-6--------------|--7--6--|--5-6-----5-6--------------|--7--6--|
---------------------------|--5--4--|---------------------------|--5--4--|
--------------3h4p3-6h7p6--|--------|--------------3h4p3-6h7p6--|--------|

---------------------------|--------|---------------------------|-----------|
---------------------------|--------|---------------------------|-----------|
------4-3------------------|--------|------4-3------------------|-----------|
--5-6-----5-6--------------|--7--6--|--5-6-----5-6--------------|-----------|
---------------------------|--5--4--|---------------------------|--2-2-2-2--|
--------------3h4p3-6h7p6--|--------|--------------3h4p3-6h7p6--|--0-0-0-0--|
						         PM-----|
--------------------------|----------------------------|---------------------|
--------------------------|----------------------------|---------------------|
--------------------------|----------------------------|---------------------|
--------7\-6--9-/10-------|----------------------------|--10/11-9-/11--------|
--7\-6--5-\4--7/-8--6\-5--|--8-/9--12\-11-8-/9--11/12--|--8/-9--7/-9--9-/8---|
--5-\4--------------4-\3--|--6/-7--10-\9--6/-7--9/-10--|--------------7/-6---|

--------------------------|----------------------------|---------------------|----------|
--------------------------|----------------------------|---------------------|----------|
--------------------------|----------------------------|---------------------|----------|
--------7\-6--9-/10-------|----------------------------|--10/11-9-/11-10/11--|----------|
--7\-6--5-\4--7/-8--6\-5--|--8-/9--12\-11-8-/9--11/12--|--8/-9--7/-9--8/-9---|--2-2-2-2-|
--5-\4--------------4-\3--|--6/-7--10-\9--6/-7--9/-10--|---------------------|--0-0-0-0-|
								   PM-----|
--------------------------|----------------------------|---------------------|
--------------------------|----------------------------|---------------------|
--------------------------|----------------------------|---------------------|
--------7\-6--9-/10-------|----------------------------|--10/11-9-/11--------|
--7\-6--5-\4--7/-8--6\-5--|--8-/9--12\-11-8-/9--11/12--|--8/-9--7/-9--9-/8---|
--5-\4--------------4-\3--|--6/-7--10-\9--6/-7--9/-10--|--------------7/-6---|

--------------------------|----------------------------|---------------------|----------|
--------------------------|----------------------------|---------------------|----------|
--------------------------|----------------------------|---------------------|----------|
--------7\-6--9-/10-------|----------------------------|--10/11-9-/11-10/11--|----------|
--7\-6--5-\4--7/-8--6\-5--|--8-/9--12\-11-8-/9--11/12--|--8/-9--7/-9--8/-9---|--2-2-2-2-|
--5-\4--------------4-\3--|--6/-7--10-\9--6/-7--9/-10--|---------------------|--0-0-0-0-|
								   PM-----|

----------------------|----------------------------|---------------------------|
----------------------|----------------------------|---------------------------|
----------------------|----------------------------|---------------------------|
----------------------|---------------------5h8p5--|--6h9p6-------2h5p2-3h6p3--|
----7---9-10------10--|--12------------------------|---------------------------|
--7---8------9-10-----|-----10-8h11p8-6h9p6--------|--------3h6p3--------------|
 PM----      ----		-|
----------------------|----------------------------|---------------------------|
----------------------|----------------------------|---------------------------|
----------------------|----------------------------|---------------------------|
----------------------|---------------------5h8p5--|--6h9p6-------2h5p2-3h6p3--|
----7---9-10------10--|--12------------------------|---------------------------|
--7---8------9-10-----|-----10-8h11p8-6h9p6--------|--------3h6p3--------------|
 PM----      ----		-|
----------------------|----------------------------|---------------------------|
----------------------|----------------------------|---------------------------|
----------------------|----------------------------|---------------------------|
----------------------|---------------------5h8p5--|--6h9p6-------2h5p2-3h6p3--|
----7---9-10------10--|--12------------------------|---------------------------|
--7---8------9-10-----|-----10-8h11p8-6h9p6--------|--------3h6p3--------------|
 PM----      ----		-|
----------------------|----------------------------|---------------------------|
----------------------|----------------------------|---------------------------|
----------------------|----------------------------|---------------------------|
----------------------|---------------------5h8p5--|--6h9p6-------2h5p2-3h6p3--|
----7---9-10------10--|--12------------------------|---------------------------|
--7---8------9-10-----|-----10-8h11p8-6h9p6--------|--------3h6p3--------------|
 PM----      ----		-|
---------|--------------------------|----------------------------|----------------------|
---------|--------------------------|----------------------------|----------------------|
---------|--------------------------|----------------------------|----------------------|
---------|--------7\-6--9-/10-------|----------------------------|--10/11-9-/11---------|
-2-2-2-2-|--7\-6--5-\4--7/-8--6\-5--|--8-/9--12\-11-8-/9—11-/12--|--8/-9--7/-9--9-/8----|
-0-0-0-0-|--5-\4--------------4-\3--|--6/-7--10-\9--6/-7--9/-10--|--------------7/-6----|
PM-----|
--------------------------|----------------------------|---------------------|----------|
--------------------------|----------------------------|---------------------|----------|
--------------------------|----------------------------|---------------------|----------|
--------7\-6--9-/10-------|----------------------------|--10/11-9-/11-10/11--|----------|
--7\-6--5-\4--7/-8--6\-5--|--8-/9--12\-11-8-/9--11/12--|--8/-9--7/-9--8/-9---|--2-2-2-2-|
--5-\4--------------4-\3--|--6/-7--10-\9--6/-7--9/-10--|---------------------|--0-0-0-0-|
								   PM-----|
--------------------------|----------------------------|---------------------|
--------------------------|----------------------------|---------------------|
--------------------------|----------------------------|---------------------|
--------7\-6--9-/10-------|----------------------------|--10/11-9-/11--------|
--7\-6--5-\4--7/-8--6\-5--|--8-/9--12\-11-8-/9--11/12--|--8/-9--7/-9--9-/8---|
--5-\4--------------4-\3--|--6/-7--10-\9--6/-7--9/-10--|--------------7/-6---|

--------------------------|----------------------------|---------------------|----------|
--------------------------|----------------------------|---------------------|----------|
--------------------------|----------------------------|---------------------|----------|
--------7\-6--9-/10-------|----------------------------|--10/11-9-/11-10/11--|----------|
--7\-6--5-\4--7/-8--6\-5--|--8-/9--12\-11-8-/9--11/12--|--8/-9--7/-9--8/-9---|--2-2-2-2-|
--5-\4--------------4-\3--|--6/-7--10-\9--6/-7--9/-10--|---------------------|--0-0-0-0-|
								   PM-----|
 |-Sweep--|				   |--Sweep-|
--0----------------------|-------------------|-----0----------|-------------------------|
----5--------------------|-------------------|-------5--------|-------------------------|
------4------------------|-------------------|---------4------|-------------------------|
--------5----------------|--------------2-2--|-2-2-------5----|-------------------------|
----------7-3h6p3h6p3h6--|--------------0-0--|-0-0---------7--|-3h6p3h6p3h6-------------|
-------------------------|--2h5p2h5p2h5------|----------------|-------------2h5p2h5p2h5-|
	   |--Sweep--|		 PM---------|
-----------|--0----------------------|---------------|
-----------|----5--------------------|---------------|
-----------|------4------------------|---------------|
--2-2-2-2--|--------5----------------|---------------|
--0-0-0-0--|----------7-3h6p3h6p3h6--|---------------|
-----------|-------------------------|--2h5p2h5p2h5--|
 PM------|
	    |--Sweep--|
-----------|--0----------------------|---------------|
-----------|----5--------------------|---------------|
-----------|------4------------------|---------------|
--2-2-2-2--|--------5----------------|---------------|
--0-0-0-0--|----------7-3h6p3h6p3h6--|---------------|
-----------|-------------------------|--2h5p2h5p2h5--|
 PM------|  |--Sweep--|
-----------|--0----------------------|---------------|
-----------|----5--------------------|---------------|
-----------|------4------------------|---------------|
--2-2-2-2--|--------5----------------|---------------|
--0-0-0-0--|----------7-3h6p3h6p3h6--|---------------|
-----------|-------------------------|--2h5p2h5p2h5--|
 PM------|  |--Sweep--|
-----------|--0----------------------|---------------|
-----------|----5--------------------|---------------|
-----------|------4------------------|---------------|
--2-2-2-2--|--------5----------------|---------------|
--0-0-0-0--|----------7-3h6p3h6p3h6--|---------------|
-----------|-------------------------|--2h5p2h5p2h5--|
 PM------|  |--Sweep--|
-----------|--0----------------------|---------------|
-----------|----5--------------------|---------------|
-----------|------4------------------|---------------|
--2-2-2-2--|--------5----------------|---------------|
--0-0-0-0--|----------7-3h6p3h6p3h6--|---------------|
-----------|-------------------------|--2h5p2h5p2h5--|
 PM------|  |--Sweep--|
-----------|--0----------------------|---------------|
-----------|----5--------------------|---------------|
-----------|------4------------------|---------------|
--2-2-2-2--|--------5----------------|---------------|
--0-0-0-0--|----------7-3h6p3h6p3h6--|---------------|
-----------|-------------------------|--2h5p2h5p2h5--|
 PM------|  |--Sweep--|
-----------|--0----------------------|---------------|-----------|
-----------|----5--------------------|---------------|-----------|
-----------|------4------------------|---------------|-----------|
--2-2-2-2--|--------5----------------|---------------|--2-2-2-2--|
--0-0-0-0--|----------7-3h6p3h6p3h6--|---------------|--0-0-0-0--|
-----------|-------------------------|--2h5p2h5p2h5--|-----------|
 PM------					         ------|
----------------------|----------------------------|---------------------------|
----------------------|----------------------------|---------------------------|
----------------------|----------------------------|---------------------------|
----------------------|---------------------5h8p5--|--6h9p6-------2h5p2-3h6p3--|
----7---9-10------10--|--12------------------------|---------------------------|
--7---8------9-10-----|-----10-8h11p8-6h9p6--------|--------3h6p3--------------|
 PM----      ----		-|
----------------------|----------------------------|---------------------------|
----------------------|----------------------------|---------------------------|
----------------------|----------------------------|---------------------------|
----------------------|---------------------5h8p5--|--6h9p6-------2h5p2-3h6p3--|
----7---9-10------10--|--12------------------------|---------------------------|
--7---8------9-10-----|-----10-8h11p8-6h9p6--------|--------3h6p3--------------|
 PM----      ----		-|
----------------------|----------------------------|---------------------------|
----------------------|----------------------------|---------------------------|
----------------------|----------------------------|---------------------------|
----------------------|---------------------5h8p5--|--6h9p6-------2h5p2-3h6p3--|
----7---9-10------10--|--12------------------------|---------------------------|
--7---8------9-10-----|-----10-8h11p8-6h9p6--------|--------3h6p3--------------|
 PM----      ----		-|
----------------------|----------------------------|---------------------------|
----------------------|----------------------------|---------------------------|
----------------------|----------------------------|---------------------------|
----------------------|---------------------5h8p5--|--6h9p6-------2h5p2-3h6p3--|
----7---9-10------10--|--12------------------------|---------------------------|
--7---8------9-10-----|-----10-8h11p8-6h9p6--------|--------3h6p3--------------|
 PM----      ----		-|
---------|------------------------|
---------|------------------------|
---------|---------5-5-6----------|
---------|-------4-------5--------|
---------|------------------------|
--3h6p3--|--2h5p2----------3h6p3--|

-------------------------|-------------------------|
-------------------------|-------------------------|
----------5-5-6----------|----------5-5-6----------|
--------4-------5--------|--------4-------5--------|
-------------------------|-------------------------|
--2h5p2-----------3h6p3--|--2h5p2-----------3h6p3--|

-------------------------|-------------------------|
-------------------------|-------------------------|
----------5-5-6----------|----------5-5-6----------|
--------4-------5--------|--------4-------5--------|
-------------------------|-------------------------|
--2h5p2-----------3h6p3--|--2h5p2-----------3h6p3--|

-------------------------|-------------------------|
-------------------------|-------------------------|
----------5-5-6----------|----------5-5-6----------|
--------4-------5--------|--------4-------5--------|
-------------------------|-------------------------|
--2h5p2-----------3h6p3--|--2h5p2-----------3h6p3--|

-------------------------|
-------------------------|
----------5-5-6----------|
--------4-------5--------|
-------------------------|
--2h5p2-----------3h6p3--|

-------------------|-------------------|-------------------|
-------------------|-------------------|-------------------|
-------------------|-------------------|-------------------|
--8-------9---9----|------8---5--------|--6---6-------5----|
------7-8---5------|--9-8---4-----3-4--|----2-----6-5---1--|
----6-----------6--|------------3------|--------3----------|
   PM----   -   ---------   -   -----       -   ----|

---------|-------------------------|
---------|-------------------------|
---------|----------5-5-6----------|
---------|--------4-------5--------|
---------|-------------------------|
--3h6p3--|--2h5p2-----------3h6p3--|

---------|-------------------|---------|-------------------|
---------|-------------------|---------|-------------------|
---------|----------5-5-6----|---------|----------5-5-6----|
---------|--------4-------5--|---------|--------4-------5--|
---------|-------------------|---------|-------------------|
--3h6p3--|--2h5p2------------|--3h6p3--|--2h5p2------------|

---------|-------------------|
---------|-------------------|
---------|----------5-5-6----|
---------|--------4-------5--|
---------|-------------------|
--3h6p3--|--2h5p2------------|

-------------------|-------------------|-------------------|
-------------------|-------------------|-------------------|
-------------------|-------------------|-------------------|
--8-------9---9----|------8---5--------|--6---6-------5----|
------7-8---5------|--9-8---4-----3-4--|----2-----6-5---1--|
----6-----------6--|------------3------|--------3----------|
   PM----   -   ---------   -   -----       -   ----|
---------------------------|--------|---------------------------|--------|
---------------------------|--------|---------------------------|--------|
------4-3------------------|--------|------4-3------------------|--------|
--5-6-----5-6--------------|--7--6--|--5-6-----5-6--------------|--7--6--|
---------------------------|--5--4--|---------------------------|--5--4--|
--------------3h4p3-6h7p6--|--------|--------------3h4p3-6h7p6--|--------|

---------------------------|--------|---------------------------|-----------||
---------------------------|--------|---------------------------|-----------||
------4-3------------------|--------|------4-3------------------|-----------||
--5-6-----5-6--------------|--7--6--|--5-6-----5-6--------------|-----------||
---------------------------|--5--4--|---------------------------|--2-2-2-2--||
--------------3h4p3-6h7p6--|--------|--------------3h4p3-6h7p6--|--0-0-0-0--||
						         PM-----|
comments
We did not receive enough feedback on this tab! Please rate:
print report bad tab
1 2 3 4 5
6 comments total. Showing first comments.
0 reply
MutilationOfMan wrote on May 20 2010, 12:54 am

so is the tuning beadfb???? or a#g#c#f#a#d#? so far thats the two tunings ive seen and idontknow which one to go buy

0 reply
Metalmaster876 wrote on September 1 2010, 11:43 am

Try using A#

0 reply
dawgzfan66 wrote on March 30 2011, 12:03 pm

I just made my dog shit its pants with the opening riff.......yes, my dog shit its pants.

I want to post or [tab]
guest
You may want to rate the tab now too:
select rating
Please do not post tabs as comments. Select "correction" instead!