Oops, an error
Loading. Please wait.

Gallery Of Suicide Bass Tab

ver1
ver1

Whole song

Interactive

More versions @911Tabs.com
2,704 views 6 this week
no commentswrite comment
1 2 3 4 5
please rate
Autoscroll
+/-
esc
set tempo
stop
Contributor
Difficulty
intermediate
Hey! There's an official Ultimate Guitar app which is ideal
for learning songs when you're away from computer. Get the app
WARNING: You are trying to view
                                    content from Ultimate-Guitar.com
                                    in an unauthorized application,
                                    which is prohibited.

                                    Please use an official Ultimate
                                    Guitar Tabs application for iPhone,
                                    iPad or Android to access legitimate
                                    chords, guitar, bass, and drum tabs
                                    from Ultimate-Guitar.com database.

                                    Type "ultimate guitar tabs" in Apple
                                    App Store's or Android Market's
                                    search to find the application.
                      Gallery of Suicide--Cannibal Corpse                              


                                                                 
Tunning: A# D# G# C# F#




      Q    Q    Q    Q        Q     Q     Q    Q     
F#||----------------------|-------------------------|
C#||----------------------|-------------------------|
G#||------------9---------|-------------------------|
D#||-------7----7---------|--10----------------6----|
A#||--0--------------0----|--------10S----0---------|


                                          
  Q                    Q    Q    Q       Q    Q    Q    Q     
--------------------------------------|----------------------|
--------------------------------------|----------------------|
--6-----------------------------------|--6-------------------|
-----------------------8--------------|-------4--------------|
----------------------------5----0----|------------5----0----|


  Q    Q    Q    Q        Q     Q     Q    Q       Q    Q    Q    Q     
----------------------|-------------------------|----------------------|
----------------------|-------------------------|----------------------|
------------9---------|-------------------------|--6-------------------|
-------7----7---------|--10----------------6----|-------0--------------|
--0--------------0----|--------10S----0---------|------------5----0----|


  Q    Q    Q    Q       Q    Q    Q    Q        Q     Q     Q    Q     
----------------------|----------------------|-------------------------|
----------------------|----------------------|-------------------------|
--6-------------------|------------9---------|-------------------------|
-------4--------------|-------7----7---------|--10----------------6----|
------------5----0----|--0--------------0----|--------10S----0---------|


  Q    Q    Q    Q       Q    Q    Q    Q       Q    Q    Q    Q     
----------------------|----------------------|----------------------|
----------------------|----------------------|----------------------|
--6-------------------|--6-------------------|----------------------|
-------0--------------|-------4--------------|-------7----9---------|
------------5----0----|------------5----0----|--0--------------0----|


  W                   W                   Q    Q    Q    Q     
-------------------|-------------------|----------------------|
-------------------|-------------------|----------------------|
-------------------|-------------------|----------------------|
--8----------------|--L----------------|-------7----9---------|
-------------------|-------------------|--0--------------0----|


  W                   W                   Q    Q    Q    Q     
-------------------|-------------------|----------------------|
-------------------|-------------------|----------------------|
-------------------|-------------------|------------9---------|
--8----------------|--L----------------|-------7----7---------|
-------------------|-------------------|--0--------------0----|


   Q     Q     Q    Q       Q    Q    Q    Q       Q    Q    Q    Q     
-------------------------|----------------------|----------------------|
-------------------------|----------------------|----------------------|
-------------------------|--6-------------------|--6-------------------|
--10----------------6----|-------8--------------|-------4--------------|
--------10S----0---------|------------5----0----|------------5----0----|


  Q    Q    Q    Q        Q     Q     Q    Q       Q    Q    Q    Q     
----------------------|-------------------------|----------------------|
----------------------|-------------------------|----------------------|
------------9---------|-------------------------|--6-------------------|
-------7----7---------|--10----------------6----|-------0--------------|
--0--------------0----|--------10S----0---------|------------5----0----|


  Q    Q    Q    Q       Q    Q    Q    Q        Q     Q     Q    Q     
----------------------|----------------------|-------------------------|
----------------------|----------------------|-------------------------|
--6-------------------|------------9---------|-------------------------|
-------4--------------|-------7----7---------|--10----------------6----|
------------5----0----|--0--------------0----|--------10S----0---------|


  Q    Q    Q    Q       Q    Q    Q    Q       E  E  E  E  E  E  E  E   
----------------------|----------------------|--------------------------|
----------------------|----------------------|--------------------------|
--6-------------------|--6-------------------|--------------------------|
-------0--------------|-------4--------------|--------------4--4--4--4--|
------------5----0----|------------5----0----|--1--1--1--1--------------|


  E  E  E  E  E  E  E  E     E  E  E  E  E  E  E  E   
--------------------------|--------------------------|
--------------------------|--------------------------|
--------------------------|--------------------------|
--1--1--1--1--------------|--------------3--3--3--3--|
--------------3--3--3--3--|--2--2--2--2--------------|


  E  E  E  E  E  E  E  E     E  E  E  E  E  E  E  E   
--------------------------|--------------------------|
--------------------------|--------------------------|
--------------------------|--------------------------|
--2--2--2--2--------------|--------------4--4--4--4--|
--------------4--4--4--4--|--1--1--1--1--------------|


  E  E  E  E  E  E  E  E     E  E  E  E  E  E  E  E   
--------------------------|--------------------------|
--------------------------|--------------------------|
--------------------------|--------------------------|
--1--1--1--1--------------|--------------3--3--3--3--|
--------------3--3--3--3--|--2--2--2--2--------------|


  E  E  E  E  E  E  E  E     E  E  E  E  E  E  E  E   
--------------------------|--------------------------|
--------------------------|--------------------------|
--------------------------|--------------------------|
--2--2--2--2--------------|--------------4--4--4--4--|
--------------4--4--4--4--|--1--1--1--1--------------|


  E  E  E  E  E  E  E  E     E  E  E  E  E  E  E  E   
--------------------------|--------------------------|
--------------------------|--------------------------|
--------------------------|--------------------------|
--1--1--1--1--------------|--------------3--3--3--3--|
--------------3--3--3--3--|--2--2--2--2--------------|


  E  E  E  E  E  E  E  E     E  E  E  E  E  E  E  E   
--------------------------|--------------------------|
--------------------------|--------------------------|
--------------------------|--------------------------|
--2--2--2--2--------------|--------------4--4--4--4--|
--------------4--4--4--4--|--1--1--1--1--------------|


  E  E  E  E  E  E  E  E     E  E  E  E  E  E  E  E   
--------------------------|--------------------------|
--------------------------|--------------------------|
--------------------------|--------------------------|
--1--1--1--1--------------|--------------3--3--3--3--|
--------------3--3--3--3--|--2--2--2--2--------------|


  E  E  E  E  E  E  E  E     Q    Q    Q    Q        Q     Q     Q    Q     
--------------------------|----------------------|-------------------------|
--------------------------|----------------------|-------------------------|
--------------------------|------------9---------|-------------------------|
--2--2--2--2--------------|-------7----7---------|--10----------------6----|
--------------4--4--4--4--|--0--------------0----|--------10S----0---------|


  Q    Q    Q    Q       Q    Q    Q    Q       Q    Q    Q    Q     
----------------------|----------------------|----------------------|
----------------------|----------------------|----------------------|
--6-------------------|--6-------------------|------------9---------|
-------8--------------|-------4--------------|-------7----7---------|
------------5----0----|------------5----0----|--0--------------0----|


   Q     Q     Q    Q       Q    Q    Q    Q       Q    Q    Q    Q     
-------------------------|----------------------|----------------------|
-------------------------|----------------------|----------------------|
-------------------------|--6-------------------|--6-------------------|
--10----------------6----|-------0--------------|-------4--------------|
--------10S----0---------|------------5----0----|------------5----0----|


  Q    Q    Q    Q        Q     Q     Q    Q       Q    Q    Q    Q     
----------------------|-------------------------|----------------------|
----------------------|-------------------------|----------------------|
------------9---------|-------------------------|--6-------------------|
-------7----7---------|--10----------------6----|-------0--------------|
--0--------------0----|--------10S----0---------|------------5----0----|


  Q    Q    Q    Q       Q    Q    Q    Q       W                 
----------------------|----------------------|-------------------|
----------------------|----------------------|-------------------|
--6-------------------|----------------------|-------------------|
-------4--------------|-------7----9---------|--8----------------|
------------5----0----|--0--------------0----|-------------------|


  W                   Q    Q    Q    Q       W                 
-------------------|----------------------|-------------------|
-------------------|----------------------|-------------------|
-------------------|----------------------|-------------------|
--L----------------|-------7----9---------|--8----------------|
-------------------|--0--------------0----|-------------------|


  W                   E  E  E  E  E  E  E  E     E  E  E  E  E  E  E  E   
-------------------|--------------------------|--------------------------|
-------------------|--------------------------|--------------------------|
-------------------|--------------------------|--------------------------|
--L----------------|--------------4--4--4--4--|--1--1--1--1--------------|
-------------------|--1--1--1--1--------------|--------------3--3--3--3--|


  E  E  E  E  E  E  E  E     E  E  E  E  E  E  E  E   
--------------------------|--------------------------|
--------------------------|--------------------------|
--------------------------|--------------------------|
--------------3--3--3--3--|--2--2--2--2--------------|
--2--2--2--2--------------|--------------4--4--4--4--|


  E  E  E  E  E  E  E  E     E  E  E  E  E  E  E  E   
--------------------------|--------------------------|
--------------------------|--------------------------|
--------------------------|--------------------------|
--------------4--4--4--4--|--1--1--1--1--------------|
--1--1--1--1--------------|--------------3--3--3--3--|


  E  E  E  E  E  E  E  E     E  E  E  E  E  E  E  E   
--------------------------|--------------------------|
--------------------------|--------------------------|
--------------------------|--------------------------|
--------------3--3--3--3--|--2--2--2--2--------------|
--2--2--2--2--------------|--------------4--4--4--4--|


  E  E  E  E  E  E  E  E     E  E  E  E  E  E  E  E   
--------------------------|--------------------------|
--------------------------|--------------------------|
--------------------------|--------------------------|
--------------4--4--4--4--|--1--1--1--1--------------|
--1--1--1--1--------------|--------------3--3--3--3--|


  E  E  E  E  E  E  E  E     E  E  E  E  E  E  E  E   
--------------------------|--------------------------|
--------------------------|--------------------------|
--------------------------|--------------------------|
--------------3--3--3--3--|--2--2--2--2--------------|
--2--2--2--2--------------|--------------4--4--4--4--|


  E  E  E  E  E  E  E  E     E  E  E  E  E  E  E  E   
--------------------------|--------------------------|
--------------------------|--------------------------|
--------------------------|--------------------------|
--------------4--4--4--4--|--1--1--1--1--------------|
--1--1--1--1--------------|--------------3--3--3--3--|


  E  E  E  E  E  E  E  E     E  E  E  E  E  E  E  E     W                 
--------------------------|--------------------------|-------------------|
--------------------------|--------------------------|-------------------|
--------------------------|--------------------------|-------------------|
--------------3--3--3--3--|--2--2--2--2--------------|-------------------|
--2--2--2--2--------------|--------------4--4--4--4--|-------------------|


  W                   W                   W                 
-------------------|-------------------|-------------------|
-------------------|-------------------|-------------------|
-------------------|-------------------|-------------------|
-------------------|-------------------|-------------------|
-------------------|-------------------|-------------------|


   S  S  S  S  S  S  S  S S S S S S S S S    S S S S S S S S S S S S S S S S  
------------------------------------------|----------------------------------|
------------------------------------------|----------------------------------|
--12-12-12-12-12-12-12-12-8-8-8-8-8-8-8-8-|--9-9-9-9-9-9-9-9-4-4-4-4-4-4-4-4-|
--10-10-10-10-10-10-10-10-6-6-6-6-6-6-6-6-|--7-7-7-7-7-7-7-7-2-2-2-2-2-2-2-2-|
------------------------------------------|----------------------------------|


  S S S S S S S S  S  S  S  S  S  S  S  S     S  S  S  S  S  S  S  S E  S S  
------------------------------------------|---------------------------------|
------------------------------------------|---------------------------------|
--5-5-5-5-5-5-5-5-12-12-12-12-12-12-12-12-|--11-11-11-11-11-11-11-11--------|
--3-3-3-3-3-3-3-3-10-10-10-10-10-10-10-10-|---9--9--9--9--9--9--9--9--------|
------------------------------------------|--------------------------0--0-0-|


   S  S  S  S  S  S  S  S S S S S S S S S    S S S S S S S S S S S S S S S S  
------------------------------------------|----------------------------------|
------------------------------------------|----------------------------------|
--12-12-12-12-12-12-12-12-8-8-8-8-8-8-8-8-|--9-9-9-9-9-9-9-9-4-4-4-4-4-4-4-4-|
--10-10-10-10-10-10-10-10-6-6-6-6-6-6-6-6-|--7-7-7-7-7-7-7-7-2-2-2-2-2-2-2-2-|
------------------------------------------|----------------------------------|


  S S S S S S S S  S  S  S  S  S  S  S  S     S  S  S  S  S  S  S  S E  S S  
------------------------------------------|---------------------------------|
------------------------------------------|---------------------------------|
--5-5-5-5-5-5-5-5-12-12-12-12-12-12-12-12-|--11-11-11-11-11-11-11-11--------|
--3-3-3-3-3-3-3-3-10-10-10-10-10-10-10-10-|---9--9--9--9--9--9--9--9--------|
------------------------------------------|--------------------------0--0-0-|


   S  S  S  S  S  S  S  S S S S S S S S S    S S S S S S S S S S S S S S S S  
------------------------------------------|----------------------------------|
------------------------------------------|----------------------------------|
--12-12-12-12-12-12-12-12-8-8-8-8-8-8-8-8-|--9-9-9-9-9-9-9-9-4-4-4-4-4-4-4-4-|
--10-10-10-10-10-10-10-10-6-6-6-6-6-6-6-6-|--7-7-7-7-7-7-7-7-2-2-2-2-2-2-2-2-|
------------------------------------------|----------------------------------|


  S S S S S S S S  S  S  S  S  S  S  S  S     S  S  S  S  S  S  S  S E  S S  
------------------------------------------|---------------------------------|
------------------------------------------|---------------------------------|
--5-5-5-5-5-5-5-5-12-12-12-12-12-12-12-12-|--11-11-11-11-11-11-11-11--------|
--3-3-3-3-3-3-3-3-10-10-10-10-10-10-10-10-|---9--9--9--9--9--9--9--9--------|
------------------------------------------|--------------------------0--0-0-|


   S  S  S  S  S  S  S  S S S S S S S S S    S S S S S S S S S S S S S S S S  
------------------------------------------|----------------------------------|
------------------------------------------|----------------------------------|
--12-12-12-12-12-12-12-12-8-8-8-8-8-8-8-8-|--9-9-9-9-9-9-9-9-4-4-4-4-4-4-4-4-|
--10-10-10-10-10-10-10-10-6-6-6-6-6-6-6-6-|--7-7-7-7-7-7-7-7-2-2-2-2-2-2-2-2-|
------------------------------------------|----------------------------------|


  S S S S S S S S  S  S  S  S  S  S  S  S     S  S  S  S  S  S  S  S  
------------------------------------------|--------------------------|
------------------------------------------|--------------------------|
--5-5-5-5-5-5-5-5-12-12-12-12-12-12-12-12-|--11-11-11-11-11-11-11-11-|
--3-3-3-3-3-3-3-3-10-10-10-10-10-10-10-10-|---9--9--9--9--9--9--9--9-|
------------------------------------------|--------------------------|


  E  E  E  Q.     E  E     E  E   E  E  E  E  E  E   
------------------------|---------------------------|
------------------------|---------------------------|
------------------------|---------------------------|
-----------4------------|------------------------5--|
--0--0--0---------0--0--|--0--3p--0--0--0--0--0-----|


  E.  E  E  E  E   E  E  S    S E  E  Q.     E  E  S  
---------------------------|-------------------------|
---------------------------|-------------------------|
---------------------------|-------------------------|
--L------------------------|----------4--------------|
------0--0--0--3p--0--0--0-|--L-0--0---------0--0--0-|


  S E   E  E  E  E  E  E  S    E.  E  E  E  E   E  E  S  
----------------------------|---------------------------|
----------------------------|---------------------------|
----------------------------|---------------------------|
-----------------------7--L-|--L---------5--2S--5-------|
--L-3p--0--0--0--0--0-------|------0--0------------0--0-|


  S E  Q.     E  E  E  S     S E  E  E  E  E  E  E.   
--------------------------|--------------------------|
--------------------------|--------------------------|
--------------------------|--------------------------|
-------4------------------|-------------------5--L---|
--L-0---------0--0--0--3h-|--L-0--0--0--0--0---------|


  E  E  E  E   E  E  E  E     E  Q.     E  E  E  E      E  E  E  E  E  Q.      
---------------------------|-------------------------|------------------------|
---------------------------|-------------------------|------------------------|
---------------------------|-------------------------|------------------------|
---------------------------|-----4-------------------|-----------------5------|
--0--0--0--3p--0--0--0--0--|--0---------0--0--0--3h--|--0--0--0--0--0---------|


  E  E  E  E   E  E  E  E     E  Q.     E  E   E  E   
---------------------------|-------------------------|
---------------------------|-------------------------|
---------------------------|-------------------------|
---------------------------|-----7---------7--12--6--|
--0--0--0--3p--0--0--0--0--|--0---------0------------|


   S  S  S  S  S  S  S  S S S S S S S S S    S S S S S S S S S S S S S S S S  
------------------------------------------|----------------------------------|
------------------------------------------|----------------------------------|
--12-12-12-12-12-12-12-12-8-8-8-8-8-8-8-8-|--9-9-9-9-9-9-9-9-4-4-4-4-4-4-4-4-|
--10-10-10-10-10-10-10-10-6-6-6-6-6-6-6-6-|--7-7-7-7-7-7-7-7-2-2-2-2-2-2-2-2-|
------------------------------------------|----------------------------------|


  S S S S S S S S  S  S  S  S  S  S  S  S     S  S  S  S  S  S  S  S E  S S  
------------------------------------------|---------------------------------|
------------------------------------------|---------------------------------|
--5-5-5-5-5-5-5-5-12-12-12-12-12-12-12-12-|--11-11-11-11-11-11-11-11--------|
--3-3-3-3-3-3-3-3-10-10-10-10-10-10-10-10-|---9--9--9--9--9--9--9--9--------|
------------------------------------------|--------------------------0--0-0-|


   S  S  S  S  S  S  S  S S S S S S S S S    S S S S S S S S S S S S S S S S  
------------------------------------------|----------------------------------|
------------------------------------------|----------------------------------|
--12-12-12-12-12-12-12-12-8-8-8-8-8-8-8-8-|--9-9-9-9-9-9-9-9-4-4-4-4-4-4-4-4-|
--10-10-10-10-10-10-10-10-6-6-6-6-6-6-6-6-|--7-7-7-7-7-7-7-7-2-2-2-2-2-2-2-2-|
------------------------------------------|----------------------------------|


  S S S S S S S S  S  S  S  S  S  S  S  S     S  S  S  S  S  S  S  S E  S S  
------------------------------------------|---------------------------------|
------------------------------------------|---------------------------------|
--5-5-5-5-5-5-5-5-12-12-12-12-12-12-12-12-|--11-11-11-11-11-11-11-11--------|
--3-3-3-3-3-3-3-3-10-10-10-10-10-10-10-10-|---9--9--9--9--9--9--9--9--------|
------------------------------------------|--------------------------0--0-0-|


   S  S  S  S  S  S  S  S S S S S S S S S    S S S S S S S S S S S S S S S S  
------------------------------------------|----------------------------------|
------------------------------------------|----------------------------------|
--12-12-12-12-12-12-12-12-8-8-8-8-8-8-8-8-|--9-9-9-9-9-9-9-9-4-4-4-4-4-4-4-4-|
--10-10-10-10-10-10-10-10-6-6-6-6-6-6-6-6-|--7-7-7-7-7-7-7-7-2-2-2-2-2-2-2-2-|
------------------------------------------|----------------------------------|


  S S S S S S S S  S  S  S  S  S  S  S  S     S  S  S  S  S  S  S  S E  S S  
------------------------------------------|---------------------------------|
------------------------------------------|---------------------------------|
--5-5-5-5-5-5-5-5-12-12-12-12-12-12-12-12-|--11-11-11-11-11-11-11-11--------|
--3-3-3-3-3-3-3-3-10-10-10-10-10-10-10-10-|---9--9--9--9--9--9--9--9--------|
------------------------------------------|--------------------------0--0-0-|


   S  S  S  S  S  S  S  S S S S S S S S S    S S S S S S S S S S S S S S S S  
------------------------------------------|----------------------------------|
------------------------------------------|----------------------------------|
--12-12-12-12-12-12-12-12-8-8-8-8-8-8-8-8-|--9-9-9-9-9-9-9-9-4-4-4-4-4-4-4-4-|
--10-10-10-10-10-10-10-10-6-6-6-6-6-6-6-6-|--7-7-7-7-7-7-7-7-2-2-2-2-2-2-2-2-|
------------------------------------------|----------------------------------|


  S S S S S S S S  S  S  S  S  S  S  S  S     S  S  S  S  S  S  S  S  
------------------------------------------|--------------------------|
------------------------------------------|--------------------------|
--5-5-5-5-5-5-5-5-12-12-12-12-12-12-12-12-|--11-11-11-11-11-11-11-11-|
--3-3-3-3-3-3-3-3-10-10-10-10-10-10-10-10-|---9--9--9--9--9--9--9--9-|
------------------------------------------|--------------------------|


  E  E  E  Q.     E  E     E  E   E  E  E  E  E  E   
------------------------|---------------------------|
------------------------|---------------------------|
------------------------|---------------------------|
-----------4------------|------------------------5--|
--0--0--0---------0--0--|--0--3p--0--0--0--0--0-----|


  E.  E  E  E  E   E  E  S    S E  E  Q.     E  E  S  
---------------------------|-------------------------|
---------------------------|-------------------------|
---------------------------|-------------------------|
--L------------------------|----------4--------------|
------0--0--0--3p--0--0--0-|--L-0--0---------0--0--0-|


  S E   E  E  E  E  E  E  S    E.  E  E  E  E   E  E  S  
----------------------------|---------------------------|
----------------------------|---------------------------|
----------------------------|---------------------------|
-----------------------7--L-|--L---------5--2S--5-------|
--L-3p--0--0--0--0--0-------|------0--0------------0--0-|


  S E  Q.     E  E  E  S     S E  E  E  E  E  E  E.   
--------------------------|--------------------------|
--------------------------|--------------------------|
--------------------------|--------------------------|
-------4------------------|-------------------5--L---|
--L-0---------0--0--0--3h-|--L-0--0--0--0--0---------|


  E  E  E  E   E  E  E  E     E  Q.     E  E  E  E      E  E  E  E  E  Q.      
---------------------------|-------------------------|------------------------|
---------------------------|-------------------------|------------------------|
---------------------------|-------------------------|------------------------|
---------------------------|-----4-------------------|-----------------5------|
--0--0--0--3p--0--0--0--0--|--0---------0--0--0--3h--|--0--0--0--0--0---------|


  E  E  E  E   E  E  E  E     E  Q.     E  E   E  E   
---------------------------|-------------------------|
---------------------------|-------------------------|
---------------------------|-------------------------|
---------------------------|-----7---------7--12--6--|
--0--0--0--3p--0--0--0--0--|--0---------0------------|


  E  E  E  E  E  E  E  E     E  E  E  E  E  E  E  E   
--------------------------|--------------------------|
--------------------------|--------------------------|
--9-----------------8-----|--------------9-----------|
-----------8--------------|-----7-----------------8--|
-----7--7-----7--7-----6--|--6-----6--6-----7--7-----|


  E  E  E  E  E  E  E  E     E  E  E  E  E  E  E  E   
--------------------------|--------------------------|
--------------------------|--------------------------|
--------8-----------------|--9-----------------8-----|
-----------------7--------|-----------8--------------|
--7--7-----6--6-----6--6--|-----7--7-----7--7-----6--|


  E  E  E  E  E  E  E  E     E  E  E  E  E  E  E  E   
--------------------------|--------------------------|
--------------------------|--------------------------|
--------------9-----------|--------8-----------------|
-----7-----------------8--|-----------------7--------|
--6-----6--6-----7--7-----|--7--7-----6--6-----6--6--|


  E  E  E  E  E  E  E  E     E  E  E  E  E  E  E  E   
--------------------------|--------------------------|
--------------------------|--------------------------|
--9-----------------8-----|--------------9-----------|
-----------8--------------|-----7-----------------8--|
-----7--7-----7--7-----6--|--6-----6--6-----7--7-----|


  E  E  E  E  E  E  E  E     E  E  E  E  E  E  E  E   
--------------------------|--------------------------|
--------------------------|--------------------------|
--------8-----------------|--9-----------------8-----|
-----------------7--------|-----------8--------------|
--7--7-----6--6-----6--6--|-----7--7-----7--7-----6--|


  E  E  E  E  E  E  E  E     E  E  E  E  E  E  E  E   
--------------------------|--------------------------|
--------------------------|--------------------------|
--------------9-----------|--------8-----------------|
-----7-----------------8--|-----------------7--------|
--6-----6--6-----7--7-----|--7--7-----6--6-----6--6--|


  E  E  E  E  E  E  E  E     E  E  E  E  E  E  E  E   
--------------------------|--------------------------|
--------------------------|--------------------------|
--9-----------------8-----|--------------9-----------|
-----------8--------------|-----7-----------------8--|
-----7--7-----7--7-----6--|--6-----6--6-----7--7-----|


  E  E  E  E  E  E  E  E     E  E  E  E  E  E  E  E   
--------------------------|--------------------------|
--------------------------|--------------------------|
--------8-----------------|--9-----------------8-----|
-----------------7--------|-----------8--------------|
--7--7-----6--6-----6--6--|-----7--7-----7--7-----6--|


  E  E  E  E  E  E  E  E     E  E  E  E  E    E  Q       Q    Q    Q    Q     
--------------------------|---------------------------|----------------------|
--------------------------|---------------------------|----------------------|
--------------9-----------|--------8------------------|------------9---------|
-----7-----------------8--|-----------------<>9--L----|-------7----7---------|
--6-----6--6-----7--7-----|--7--7-----6--6------------|--0--------------0----|


   Q     Q     Q    Q       Q    Q    Q    Q       Q    Q    Q    Q     
-------------------------|----------------------|----------------------|
-------------------------|----------------------|----------------------|
-------------------------|--6-------------------|--6-------------------|
--10----------------6----|-------8--------------|-------4--------------|
--------10S----0---------|------------5----0----|------------5----0----|


  Q    Q    Q    Q        Q     Q     Q    Q       Q    Q    Q    Q     
----------------------|-------------------------|----------------------|
----------------------|-------------------------|----------------------|
------------9---------|-------------------------|--6-------------------|
-------7----7---------|--10----------------6----|-------0--------------|
--0--------------0----|--------10S----0---------|------------5----0----|


  Q    Q    Q    Q       Q    Q    Q    Q        Q     Q     Q    Q     
----------------------|----------------------|-------------------------|
----------------------|----------------------|-------------------------|
--6-------------------|------------9---------|-------------------------|
-------4--------------|-------7----7---------|--10----------------6----|
------------5----0----|--0--------------0----|--------10S----0---------|


  Q    Q    Q    Q       Q    Q    Q    Q     
----------------------|----------------------|
----------------------|----------------------|
--6-------------------|--6-------------------|
-------0--------------|-------4--------------|
------------5----0----|------------5----0----|


   S  S  S  S  S  S  S  S S S S S S S S S    S S S S S S S S S S S S S S S S  
------------------------------------------|----------------------------------|
------------------------------------------|----------------------------------|
--12-12-12-12-12-12-12-12-8-8-8-8-8-8-8-8-|--9-9-9-9-9-9-9-9-4-4-4-4-4-4-4-4-|
--10-10-10-10-10-10-10-10-6-6-6-6-6-6-6-6-|--7-7-7-7-7-7-7-7-2-2-2-2-2-2-2-2-|
------------------------------------------|----------------------------------|


  S S S S S S S S  S  S  S  S  S  S  S  S     S  S  S  S  S  S  S  S E  S S  
------------------------------------------|---------------------------------|
------------------------------------------|---------------------------------|
--5-5-5-5-5-5-5-5-12-12-12-12-12-12-12-12-|--11-11-11-11-11-11-11-11--------|
--3-3-3-3-3-3-3-3-10-10-10-10-10-10-10-10-|---9--9--9--9--9--9--9--9--------|
------------------------------------------|--------------------------0--0-0-|


   S  S  S  S  S  S  S  S S S S S S S S S    S S S S S S S S S S S S S S S S  
------------------------------------------|----------------------------------|
------------------------------------------|----------------------------------|
--12-12-12-12-12-12-12-12-8-8-8-8-8-8-8-8-|--9-9-9-9-9-9-9-9-4-4-4-4-4-4-4-4-|
--10-10-10-10-10-10-10-10-6-6-6-6-6-6-6-6-|--7-7-7-7-7-7-7-7-2-2-2-2-2-2-2-2-|
------------------------------------------|----------------------------------|


  S S S S S S S S  S  S  S  S  S  S  S  S     S  S  S  S  S  S  S  S E  S S  
------------------------------------------|---------------------------------|
------------------------------------------|---------------------------------|
--5-5-5-5-5-5-5-5-12-12-12-12-12-12-12-12-|--11-11-11-11-11-11-11-11--------|
--3-3-3-3-3-3-3-3-10-10-10-10-10-10-10-10-|---9--9--9--9--9--9--9--9--------|
------------------------------------------|--------------------------0--0-0-|


   S  S  S  S  S  S  S  S S S S S S S S S    S S S S S S S S S S S S S S S S  
------------------------------------------|----------------------------------|
------------------------------------------|----------------------------------|
--12-12-12-12-12-12-12-12-8-8-8-8-8-8-8-8-|--9-9-9-9-9-9-9-9-4-4-4-4-4-4-4-4-|
--10-10-10-10-10-10-10-10-6-6-6-6-6-6-6-6-|--7-7-7-7-7-7-7-7-2-2-2-2-2-2-2-2-|
------------------------------------------|----------------------------------|


  S S S S S S S S  S  S  S  S  S  S  S  S     S  S  S  S  S  S  S  S E  S S  
------------------------------------------|---------------------------------|
------------------------------------------|---------------------------------|
--5-5-5-5-5-5-5-5-12-12-12-12-12-12-12-12-|--11-11-11-11-11-11-11-11--------|
--3-3-3-3-3-3-3-3-10-10-10-10-10-10-10-10-|---9--9--9--9--9--9--9--9--------|
------------------------------------------|--------------------------0--0-0-|


   S  S  S  S  S  S  S  S S S S S S S S S    S S S S S S S S S S S S S S S S  
------------------------------------------|----------------------------------|
------------------------------------------|----------------------------------|
--12-12-12-12-12-12-12-12-8-8-8-8-8-8-8-8-|--9-9-9-9-9-9-9-9-4-4-4-4-4-4-4-4-|
--10-10-10-10-10-10-10-10-6-6-6-6-6-6-6-6-|--7-7-7-7-7-7-7-7-2-2-2-2-2-2-2-2-|
------------------------------------------|----------------------------------|


  S S S S S S S S  S  S  S  S  S  S  S  S     S  S  S  S  S  S  S  S  
------------------------------------------|--------------------------|
------------------------------------------|--------------------------|
--5-5-5-5-5-5-5-5-12-12-12-12-12-12-12-12-|--11-11-11-11-11-11-11-11-|
--3-3-3-3-3-3-3-3-10-10-10-10-10-10-10-10-|---9--9--9--9--9--9--9--9-|
------------------------------------------|--------------------------|


  E  E  E  Q.     E  E     E  E   E  E  E  E  E  E   
------------------------|---------------------------|
------------------------|---------------------------|
------------------------|---------------------------|
-----------4------------|------------------------5--|
--0--0--0---------0--0--|--0--3p--0--0--0--0--0-----|


  E.  E  E  E  E   E  E  S    S E  E  Q.     E  E  S  
---------------------------|-------------------------|
---------------------------|-------------------------|
---------------------------|-------------------------|
--L------------------------|----------4--------------|
------0--0--0--3p--0--0--0-|--L-0--0---------0--0--0-|


  S E   E  E  E  E  E  E  S    E.  E  E  E  E   E  E  S  
----------------------------|---------------------------|
----------------------------|---------------------------|
----------------------------|---------------------------|
-----------------------7--L-|--L---------5--2S--5-------|
--L-3p--0--0--0--0--0-------|------0--0------------0--0-|


  S E  Q.     E  E  E  S     S E  E  E  E  E  E  E.   
--------------------------|--------------------------|
--------------------------|--------------------------|
--------------------------|--------------------------|
-------4------------------|-------------------5--L---|
--L-0---------0--0--0--3h-|--L-0--0--0--0--0---------|


  E  E  E  E   E  E  E  E     E  Q.     E  E  E  E      E  E  E  E  E  Q.      
---------------------------|-------------------------|------------------------|
---------------------------|-------------------------|------------------------|
---------------------------|-------------------------|------------------------|
---------------------------|-----4-------------------|-----------------5------|
--0--0--0--3p--0--0--0--0--|--0---------0--0--0--3h--|--0--0--0--0--0---------|


  E  E  E  E   E  E  E  E     E  Q.     E  E   E  E    
---------------------------|-------------------------||
---------------------------|-------------------------||
---------------------------|-------------------------||
---------------------------|-----7---------7--12--6--||
--0--0--0--3p--0--0--0--0--|--0---------0------------||




Duration Legend
---------------
W - whole
H - half
Q - quarter
E - 8th
S - 16th
T - 32nd
X - 64th
. - note dotted
|-n-|  - n-tuplets


Tablature Legend
----------------
L - tied note
x - dead note
g - grace note
(n) - ghost note
> - accentuded note
NH - natural harmonic
AH - artificial harmonic
TH - tapped harmonic
SH - semi harmonic
PH - pitch harmonic
h - hammer on
p - pull off
b - bend
br - bendRelease
pb - preBend
pbr - preBendRelease
brb - bendReleaseBend
\n/ - tremolo bar dip
\n - tremolo bar dive
-/n - tremolo bar Release up
/n\ - tremolo bar inverted dip
/n - tremolo bar return
-\n - tremolo bar Release down
S - shift slide
s - legato slide
/ -  slide into from below or out of upwards
\ -  slide into from above or out of downwards
~ - vibrato
W - wide vibrato
tr - trill
TP - tremolo picking
T - tapping
S - slap
P - pop
< - fade in
^ - brush up
v - brush down
comments
We did not receive enough feedback on this tab! Please rate:
print report bad tab
1 2 3 4 5
I want to post or [tab]
guest
You may want to rate the tab now too:
select rating
Please do not post tabs as comments. Select "correction" instead!