Oops, an error
Loading. Please wait.

Headless Tab

ver1
ver1

Whole song

Interactive

More versions @911Tabs.com
465 views 1 this week
no commentswrite comment
1 2 3 4 5
please rate
Autoscroll
+/-
esc
set tempo
stop
Contributor
Difficulty
intermediate
Hey! There's an official Ultimate Guitar app which is ideal
for learning songs when you're away from computer. Get the app
WARNING: You are trying to view
                                    content from Ultimate-Guitar.com
                                    in an unauthorized application,
                                    which is prohibited.

                                    Please use an official Ultimate
                                    Guitar Tabs application for iPhone,
                                    iPad or Android to access legitimate
                                    chords, guitar, bass, and drum tabs
                                    from Ultimate-Guitar.com database.

                                    Type "ultimate guitar tabs" in Apple
                                    App Store's or Android Market's
                                    search to find the application.
Cannibal Corpse - Headless (1998)

h       =  hammer-on               b/  =   bend half a step           
p       = pull-off                
PM |--| = palm mute                  )
"       = tremolo picking          b/   =  bend one whole step
        = (or 32th note)        
/       = slide up                 b/\  =  bend half a step and release
\       = slide down              
4/4     = time signature             )
( )     = tie note                 b/ \ =  bend one whole step and release
x       = muffled note             b    =  bend without picking
ah      = artificial harmonic      B    =  bend with picking


Timing: 4/4: ----   = 1 beat
       12/8: ------ = 1 beat
             |_3_|  = triplet

Gtr 1 = left speaker
Gtr 2 = right speaker

Tune Down 3 whole step  (6:Bb 5:Eb 4:Ab 3:Db 2:Gb 1:Bb)

(Drum)

 4/4
  Riff A (Gtr 1)
|------------------|-----------------|-----------------|-----------------|
|------------------|-----------------|-----------------|-----------------|
|o-----------------|-----------------|-7777------------|-----------------|
|o---------88888888|-8888----8888----|---------66666666|-6666----6666----|
|--55555555--------|-----5555----5555|-----5555--------|-----5555----5555|
|------------------|-----------------|-----------------|-----------------|
|                                                                        |
| Riff A1 (Gtr 2)                                                        |
|------------------|-----------------|-----------------|-----------------|
|------------------|-----------------|-8888------------|-----------------|
|o-10""10""77777777|-7777----777710"-|-----777710""10""|-10""------------|
|o-----------------|-----7777--------|-----------------|-----77779999----|
|------------------|-----------------|-----------------|-------------8888|
|------------------|-----------------|-----------------|-----------------|

                                                           (end Riff A)
|-----------------|-----------------|-----------------|------------------|
|-----------------|-----------------|-----------------|------------------|
|-7777------------|-----------------|-----------------|-----------------o|
|-----------------|-----------------|-6666------------|-----------------o|
|-----555588888888|-8888----88885555|-----555588888888|-888800003---6----|
|-----------------|-----5555--------|-----------------|------------------|
|                                                                        |
|                                                          (end Riff A1) |
|-----------------|-----------------|-----------------|------------------|
|-----------------|-----------------|-----------------|------------------|
|-10""------------|-----------------|-----------------|-----------------o|
|---------99999999|-999910""----6666|-9999----66666666|-6666------------o|
|-----8888--------|---------8888----|-----8888--------|---------5---8----|
|-----------------|-----------------|-----------------|-----8888---------|


|-----------------|-----------------|-----------------|-----------------|
|-----------------|-----------------|-----------------|-----------------|
|-----------------|-----------------|-----------------|-----------------|
|---------ah------|-------------ah--|-----------------|-ah--------------|
|---------5~------|-------------5~--|-6666------------|-5~--------------|
|-11110-------2222|-555555550-------|-----333355550---|-----333355555555|
|                                                                       |
|                                                                       |
|-----------------|-----------------|-----------------|-----------------|
|-----------------|-----------------|-----------------|-----------------|
|-----------------|-----------------|-----------------|-----------------|
|---------ah------|-------------ah--|-----------------|-ah--------------|
|---------5~------|-------------5~--|-6666------------|-5~--------------|
|-11110-------2222|-555555550-------|-----333322220---|-----333355552222|


|-----------------|-----------------|-----------------|-----------------|
|-----------------|-----------------|-----------------|-----------------|
|-----------------|-----------------|-----------------|-----------------|
|-----ah--4444----|---------ah------|-------------ah--|-----------------|
|-----5~------1111|---------5~--0000|-0000--------5~--|-6666------------|
|-0---------------|-55550-----------|-----22220-------|-----333355550---|
|                                                                       |
|                                                                       |
|-----------------|-----------------|-----------------|-----------------|
|-----------------|-----------------|-----------------|-----------------|
|-----------------|-----------------|-----------------|-----------------|
|-----ah----------|---------ah------|-------------ah--|-----------------|
|-----5~--6666----|---------5~------|-------------5~--|-6666------------|
|-0-----------3333|-22220-------3333|-555522220-------|-----333322220---|
 
                       (end Riff B)
|-----------------|-----------------|
|-----------------|-----------------|
|-----------------|-----------------|
|-ah--------------|-----ah--4444----|
|-5~--00000000----|-----5~------1111|
|-------------2222|-0---------------|
|                                   |
|                     (end Riff B1) |
|-----------------|-----------------|
|-----------------|-----------------|
|-----------------|-----------------|
|-ah--------------|-----ah----------|
|-5~--00000000----|-----5~--6666----|
|-------------2222|-0-----------3333|

 (Both Gtrs)
 Riff C
|-----------------|-----------------|-----------------|-----------------|
|---------4-------|-------------4---|-7-------4-------|-----------------|
|-00000000-0000060|-000060003000-000|--0000000-000006-|-0000600030007---|
|-----------------|-----------------|-----------------|-------------5---|
|-----------------|-----------------|-----------------|-----------------|
|-----------------|-----------------|-----------------|-----------------|

 Riff C1                                                   (end Riff C1)
|-----------------|-----------------|-----------------|-----------------|
|---------4-------|-------------4---|-7-------4-------|-----------------|
|-10--0000-0000060|-000060003000-000|--0000000-0000060|-0000600030007---|
|-8---------------|-----------------|-----------------|-------------5---|
|-----------------|-----------------|-----------------|-----------------|
|-----------------|-----------------|-----------------|-----------------|

 Riff C2 (Gtr 2) w/ Riff C1                                 (end Riff C2)
|-----------------|-----------------|------------------|-----------------|
|---------7-------|-------------7---|-10-------7-------|-----------------|
|-10--0000-0000090|-000090006000-000|---0000000-0000090|-0000900060007---|
|-8---------------|-----------------|------------------|-------------5---|
|-----------------|-----------------|------------------|-----------------|
|-----------------|-----------------|------------------|-----------------|

  Riff C3 (Gtr 1)                                              (end Riff C3)
|-----------------|-----------------|------------------|---------------------|
|---------4-------|-------------4---|-7-------4--------|---------------------|
|-10--0000-0000060|-000060003000-000|--0000000-0000060-|-000060003000--------|
|-8---------------|-----------------|------------------|---------------------|
|-----------------|-----------------|------------------|-------------5---8---|
|-----------------|-----------------|------------------|-------------3---6---|
|                                                                            |
| Riff C4 (Gtr 2)                                              (end Riff C4) |
|-----------------|-----------------|------------------|---------------------|
|---------7-------|-------------7---|-10-------7-------|---------------------|
|-10--0000-0000090|-000090006000-000|---0000000-0000090|-000090006000--------|
|-8---------------|-----------------|------------------|---------------------|
|-----------------|-----------------|------------------|-------------5---8---|
|-----------------|-----------------|------------------|-------------3---6---|


|-----------------|-----------------|-----------------|-----------------|
|-----------------|-----------------|-----------------|-----------------|
|-----------------|-----------------|-----------------|-----------------|
|---------ah------|-------------ah--|-----------------|-ah--------------|
|---------5~------|-------------5~--|-6666------------|-5~--------------|
|-22220-------3333|-555555550-------|-----333355550---|-----333355552222|
|                                                                       |
|                                                                       |
|-----------------|-----------------|-----------------|-----------------|
|-----------------|-----------------|-----------------|-----------------|
|-----------------|-----------------|-----------------|-----------------|
|---------ah------|-------------ah--|-----------------|-ah--------------|
|---------5~------|-------------5~--|-6666------------|-5~--------------|
|-22220-------3333|-555522220-------|-----333322220---|-----333355552222|


|-----------------|
|-----------------|
|-----------------|
|-----ah--4444----|
|-----5~------1111|
|-0---------------|
|                 |
|                 |
|-----------------|
|-----------------|
|-----------------|
|-----ah----------|
|-----5~--6666----|
|-0-----------3333|

play Riff C
play Riff C1
play Riff C1 & C2 
play Riff C3 & C4
play Riff A & A1 (2 times)

slower
 2/4
  Fill 1    Riff D
|----------|-----------------|-----------------|-----------------|-----------------|
|----------|-----------------|-----------------|-----------------|-----------------|
|----------|-----------------|-------------3"--|-5"--------------|-5"------2"--3"--|
|-4---8----|-7"--------------|-7"------4"------|-----------------|-----------------|
|----------|-----------------|-----------------|-----------------|-----------------|
|----------|-----------------|-----------------|-----------------|-----------------|
|                                                                                  |
| Fill 1A   Riff D1                                                                |
|----------|-----------------|-----------------|-----------------|-----------------|
|----------|-----------------|-----------------|-----------------|-----------------|
|----------|-----------------|-------------6---|-8~--------------|-(8)-----5---6---|
|-7---11---|-10~-------------|-(10)----7-------|-----------------|-----------------|
|----------|-----------------|-----------------|-----------------|-----------------|
|----------|-----------------|-----------------|-----------------|-----------------|

                                                            (end Riff D)
|-----------------|-----------------|-----------------|------------------|
|-----------------|-----------------|-3"--------------|-3"---------------|
|-5"--------------|-5"------2"--3"--|-----------------|------------------|
|-----------------|-----------------|-----------------|---------4"--8"---|
|-----------------|-----------------|-----------------|------------------|
|-----------------|-----------------|-----------------|------------------|
|                                                                        |
|                                                          (end Riff D1) |
|-----------------|-----------------|-----------------|------------------|
|-----------------|-----------------|-6~--------------|-(6)--------------|
|-8~--------------|-(8)-----5---6---|-----------------|------------------|
|-----------------|-----------------|-----------------|---------7---11---|
|-----------------|-----------------|-----------------|------------------|
|-----------------|-----------------|-----------------|------------------|

  Riff D2
|-----------------|-----------------|-----------------|-----------------|
|-----------------|-----------------|-----------------|-----------------|
|-----------------|-------------3"--|-5"--------------|-5"------2"--3"--|
|-7"--------------|-7"------4"------|-----------------|-----------------|
|-----------------|-----------------|-----------------|-----------------|
|-----------------|-----------------|-----------------|-----------------|
|                                                                       |
| Riff D3                                                               |
|-----------------|-----------------|-----------------|-----------------|
|-----------------|-----------------|-----------------|-----------------|
|-----------------|-------------6---|-8~--------------|-(8)-----5---6---|
|-10~-------------|-(10)----7-------|-----------------|-----------------|
|-----------------|-----------------|-----------------|-----------------|
|-----------------|-----------------|-----------------|-----------------|

                                                          (end Riff D2)
|-----------------|-----------------|-----------------|-ah--------------|
|-----------------|-----------------|-3"--------------|-3~--------------|
|-5"--------------|-5"------2"--3"--|-----------------|-----------------|
|-----------------|-----------------|-----------------|-----------------|
|-----------------|-----------------|-----------------|-----------------|
|-----------------|-----------------|-----------------|-----------------|
|                                                                       |
|                                                         (end Riff D3) |
|-----------------|-----------------|-----------------|-----------------|
|-----------------|-----------------|-6~--------------|-(6)-------------|
|-8~--------------|-(8)-----5---6---|-----------------|-----------------|
|-----------------|-----------------|-----------------|-----------------|
|-----------------|-----------------|-----------------|-----------------|
|-----------------|-----------------|-----------------|-----------------|

        play 4 times
|-------------------|-------------------|-------------------|-----------------|
|-------------------|-------------------|-------------------|-----------------|
|o-----------------o|o-------*/--------o|--------*/---------|-5"--4"7"--4"3"--|
|o-6"--5"8"--5"4"--o|o-------/*--------o|--------/*---------|-----------------|
|-------------------|-------------------|-------------------|-----------------|
|-------------------|-------------------|-------------------|-----------------|
|                                                                             |
|                                                                             |
|-------------------|-------------------|-------------------|-----------------|
|--6----------------|-------------------|-------------------|-----------------|
|o-----------------o|o-----------------o|-10"----12"--9"8"--|-------*/--------|
|o-4---------------o|o-3"--2"5"--2"1"--o|-------------------|-------/*--------|
|-------------------|-------------------|-------------------|-----------------|
|-------------------|-------------------|-------------------|-----------------|

play Fill 1 & 1A
play Riff D & D1
play Riff D2 & D3

|-----------------|-----------------|-----------------|-----------------|
|-----------------|-----------------|-----------------|-----------------|
|-----------------|-----------------|-----------------|-----------------|
|---------ah------|-------------ah--|-----------------|-ah--------------|
|---------5~------|-------------5~--|-6666------------|-5~--------------|
|-22220-------3333|-555555550-------|-----333355550---|-----333355555555|
|                                                                       |
|                                                                       |
|-----------------|-----------------|-----------------|-----------------|
|-----------------|-----------------|-----------------|-----------------|
|-----------------|-----------------|-----------------|-----------------|
|---------ah------|-------------ah--|-----------------|-ah--------------|
|---------5~------|-------------5~--|-6666------------|-5~--------------|
|-22220-------3333|-555522220-------|-----333322220---|-----333355552222|


|-----------------|-----------------|-----------------|-----------------|
|-----------------|-----------------|-----------------|-----------------|
|-----------------|-----------------|-----------------|-----------------|
|-----ah--4444----|---------ah------|-------------ah--|-----------------|
|-----5~------1111|---------5~------|-------------5~--|-6666------------|
|-0---------------|-55550-------3333|-555555550-------|-----333322220---|
|                                                                       |
|                                                                       |
|-----------------|-----------------|-----------------|-----------------|
|-----------------|-----------------|-----------------|-----------------|
|-----------------|-----------------|-----------------|-----------------|
|-----ah----------|---------ah------|-------------ah--|-----------------|
|-----5~--6666----|---------5~------|-------------5~--|-6666------------|
|-0-----------3333|-22220-------3333|-555522220-------|-----333322220---|


|-----------------|-----------------|-----------------|
|-----------------|-----------------|-----------------|
|-----------------|-----------------|-----------------|
|-ah--------------|-----ah--4444----|-----------------|
|-5~--------------|-----5~------1111|-2---------------|
|-----333355555555|-0---------------|-0---------------|
|                                                     |
|                                                     |
|-----------------|-----------------|-----------------|
|-----------------|-----------------|-----------------|
|-----------------|-----------------|-----------------|
|-ah--------------|-----ah----------|-----------------|
|-5~--------------|-----5~--6666----|-2---------------|
|-----333355552222|-0-----------3333|-0---------------|

comments
We did not receive enough feedback on this tab! Please rate:
print report bad tab
1 2 3 4 5
I want to post or [tab]
guest
You may want to rate the tab now too:
select rating
Please do not post tabs as comments. Select "correction" instead!