Oops, an error
Loading. Please wait.

I Will Kill You Tab

ver2
ver2

Whole song

Interactive

More versions @911Tabs.com
4,022 views 3 this week
no commentswrite comment
1 2 3 4 5
excellent!
x 4
Autoscroll
+/-
esc
set tempo
stop
Contributor
Difficulty
intermediate
Hey! There's an official Ultimate Guitar app which is ideal
for learning songs when you're away from computer. Get the app
WARNING: You are trying to view
                                    content from Ultimate-Guitar.com
                                    in an unauthorized application,
                                    which is prohibited.

                                    Please use an official Ultimate
                                    Guitar Tabs application for iPhone,
                                    iPad or Android to access legitimate
                                    chords, guitar, bass, and drum tabs
                                    from Ultimate-Guitar.com database.

                                    Type "ultimate guitar tabs" in Apple
                                    App Store's or Android Market's
                                    search to find the application.
Cannibal Corpse - I Will Kill You (1998)

.  - palm mute                  /  - slide up to
\  - slide down to              ~  - vibrato
h  - hammer on                  b  - bend
p  - pull off                   Suffixes for bend
ph - pinch harmonic             f - full bend    h - half bend
*  - see comment                r - release      t - tap bend
X  - percussion mute            ~ - vibrato bend
@  - slight palm mute           () - ghost note, sustained note

Tune Gtr to B-flat (3 whole steps down)



Riff A
|---------------------------|----------------------------|
|---------------------------|----------------------------|
|---------------------------|----------------------------|Gtrs
|---------------------------|-111111111111-------------1-|I&II
|--------------222222222222-|--------------222222--------|
|-333333333333--------------|---------------------3333---|
|
|---------------------------|---------------------------|
|---------------------------|---------------------------|
|---------------------------|---------------------------|Gtr
|--------------666666666666-|---------------------------| I
|-222222222222--------------|-555555-------555555-------|
|---------------------------|--------4-3-4--------4-3-4-|
|                                    . . .        . . .
|
|---------------------------|---------------------------|
|---------------------------|---------------------------|
|---------------------------|---------------------------|Gtr
|--------------666666666666-|--------------333333-------| II
|-222222222222--------------|-555555--------------------|
|---------------------------|--------4-3-4--------4-3-4-|
|                                    . . .        . . .
|
|---------------------------|----------------------------|
|---------------------------|----------------------------|
|---------------------------|----------------------------|Gtrs
|---------------------------|-111111111111-------------1-|I&II
|--------------222222222222-|--------------222222--------|
|-333333333333--------------|---------------------3333---|
|                                                                                  2tx
|---------------------------------|--------------------|------------------------------|
|---------------------------------|--------------------|------------------------------|
|---------------------------------|--------------------|------77666666------77--------|Gtrs
|--------------666666666666999999-|-------999999-------|-9999----------9999----666666-|I&II
|-222222222222--------------------|-8-7-8--------8-7-8-|------------------------------|
|---------------------------------|--------------------|------------------------------|
                                    . . .        . . .


*Riff B
|---------------------------|----------------------------|
|---------------------------|----------------------------|
|---------------------------|----------------------------|Gtr
|---------------------------|-777777777777-------------7-| I
|--------------888888888888-|--------------888888--------|
|-999999999999--------------|---------------------9999---|
|
|---------------------------------------|------------------------------|
|---------------------------------------|------------------------------|
|---------------------------------------|------------------------------|Gtr
|---------------------------------------|-1111111111111111111111117777-| II
|--------------121212121212121212121212-|------------------------------|
|-999999999999--------------------------|------------------------------|
|
|---------------|
|---------------|
|---------------|Gtr
|-------------7-| II
|-888888--------|
|--------9999---|
|
|----------------------------------------|----------------------------------------|
|----------------------------------------|----------------------------------------|
|----------------------------------------|----------------------------------------|Gtr
|--------------121212121212--------------|----------------------------------------| I
|-888888888888--------------111111111111-|---------11---14--13------11---14-------|
|----------------------------------------|-10-9-10---------------------------13---|
|                                           . .  .
|
|----------------------------------------|------------------------------------------|
|----------------------------------------|------------------------------------------|
|----------------------------------------|------------------------------------------|Gtr
|--------------121212121212--------------|------------------------------------------| II
|-888888888888--------------111111111111-|---------11111111141413131313131311111111-|
|----------------------------------------|-10-9-10----------------------------------|
|                                           . .  .
|
|--------------------------------|
|--------------------------------|
|--------------------------------|Gtr
|--------------------------------| I
|-11---14--13------11---14-------|
|---------------------------13---|
|
|-------------------|---------------------------------------------------|
|-------------------|---------------------------------------------------|
|-------------------|---------------------------------------------------|Gtr
|-------------------|---------------------------------------------------| II
|-1414--------------|-111111111414131313131313111111111414--------------|
|------131313131313-|--------------------------------------131313131313-|


*During this riff, each guitar is playing simultaneously but the spacing
is shown otherwise.


Riff B.1
|---------------------------------------------------|--------------------------|
|---------------------------------------------------|--------------------------|
|---------------------------------------------------|--------------------------|Gtr
|---------------------------------------------------|--------------------------| I
|-111111111414131313131313111111111414--------------|-111111111414131313131313-|
|--------------------------------------131313131313-|--------------------------|
|
|---------------------------------------------------|--------------------------|
|---------------------------------------------------|--------------------------|
|---------------------------------------------------|--------------------------|Gtr
|-131313131212111111111111131313131212--------------|-131313131212111111111111-| II
|--------------------------------------141414141414-|--------------------------|
|---------------------------------------------------|--------------------------|
|
|---------------------------|
|---------------------------|
|---------------------------|Gtr
|---------------------------| I
|-111111111414--------------|
|--------------131313131313-|
|
|---------------------------|
|---------------------------|
|---------------------------|Gtr
|-131313131212--------------| II
|--------------141414141414-|
|---------------------------|


Riff C
|----------------------------|-----------------------|-----------------------|
|----------------------------|-----------------------|-----------------------|
|-9--------------------------|-----------------------|-----------------------|Gtr
|-9--------11---9--8------5--|-----------------------|-----------------------| I
|-7--------11---9--8------5--|-------------------7---|-------------------7---|
|-0--------9----7--6------3--|-0-332-3h6-6-5h6-6---6-|-0-332-3h6-6-5h6-6---6-|
|                              . ...                   . ...
|
|----------------------------|-----------------------|-----------------------|
|----------------------------|-----------------------|-----------------------|
|----------------------------|-----------------------|-----------------------|Gtr
|----------11---9--8------5--|-----------------------|-----------------------| II
|-7--------------------------|-------------------7---|-------------------7---|
|-0--------9----7--6------3--|-0-332-3h6-6-5h6-6---6-|-0-332-3h6-6-5h6-6---6-|
|                              . ...                   . ...
|
|--------------------------|-----------------------|-----------------------|
|--------------------------|-----------------------|-----------------------|
|-9------------------------|-----------------------|-----------------------|Gtr
|-9-----------9--8------5--|-----------------------|-----------------------| I
|-7-----------9--8------5--|-------------------7---|-------------------7---|
|-0-----------7--6------3--|-0-332-3h6-6-5h6-6---6-|-0-332-3h6-6-5h6-6---6-|
|                            . ...                   . ...
|
|--------------------------|-----------------------|-----------------------|
|--------------------------|-----------------------|-----------------------|
|--------------------------|-----------------------|-----------------------|Gtr
|-------------9--8------5--|-----------------------|-----------------------| II
|-7------------------------|-------------------7---|-------------------7---|
|-0-----------7--6------3--|-0-332-3h6-6-5h6-6---6-|-0-332-3h6-6-5h6-6---6-|
                             . ...                   . ...


Riff C 3tx
Riff A 1tx
Riff B 1tx
Riff B.1 1tx
Riff C 4tx


Riff C.1
|-----------------------|-----------------------|
|-----------------------|-----------------------|
|-----------------------|-----------------------|Gtrs
|-----------------------|-----------------------|I&II
|-------------------7---|-------------------7---|
|-0-332-3h6-6-5h6-6---6-|-0-332-3h6-6-5h6-6---6-|
  . ...                   . ...


Riff D                                      Fill 1
|-4444--------------------|-----------------|-4444-|
|-5555--------------------|-----------------|-5555-|
|-6666--------------------|-----------------|-6666-|Gtrs
|-6666--------------------|-----9\6---5/8---|-6666-|I&II
|-4444--------------------|-----------------|-4444-|
|------006666660033333300-|-0---7\4---3/6---|------|
       ..................


Riff D 2tx


Riff D.1
|-------------------------|-------------------------|
|-------------------------|-------------------------|
|-----------------6/9-9-9-|-----------------6/9-9-9-|Gtrs
|-------------------------|-------------------------|I&II
|-4---------------4/7-7-7-|-4---------------4/7-7-7-|
|---0-6-6-0-3-3-0---------|---0-6-6-0-3-3-0---------|
|   . . . . . . .             . . . . . . .
|
|-------------------------|-------------------------|
|-------------------------|-------------------------|
|-----------------6/9-9-9-|-----------------6/9-9-9-|Gtrs
|-------------------------|-------------------------|I&II
|-4---------------4/7-7-7-|-4---------------4/7-7-7-|
|---0-6-6-0-3-3-0---------|---0-6-6-0-3-3-0---------|
    . . . . . . .             . . . . . . .


Riff D.2
|-------------------------|-------------------------|
|-------------------------|-------------------------|
|-----------------6/9-9-9-|-----------------6/9-9-9-|Gtr
|-------------------------|-------------------------| I
|-4---------------4/7-7-7-|-4---------------4/7-7-7-|
|---0-6-6-0-3-3-0---------|---0-6-6-0-3-3-0---------|
|   . . . . . . .             . . . . . . .
|
|----------------------------|-----------------------------|
|----------------------------|-----------------------------|
|-----------------9/12-12-12-|-----------------11/14-14-14-|Gtr
|----------------------------|-----------------------------| II
|-4---------------7/10-10-10-|-4----------------9/12-12-12-|
|---0-6-6-0-3-3-0------------|---0-6-6-0-3-3-0-------------|
|   . . . . . . .                . . . . . . .
|
|-------------------------|-----------------|
|-------------------------|-----------------|
|-----------------6/9-9-9-|-----------------|Gtr
|-------------------------|-----------------| I
|-4---------------4/7-7-7-|-4---------------|
|---0-6-6-0-3-3-0---------|---0-6-6-0-3-3-0-|
|   . . . . . . .             . . . . . . .
|
|-----------------------------|-----------------|
|-----------------------------|-----------------|
|-----------------14/17-17-17-|-----------------|Gtr
|-----------------------------|-----------------| II
|-4---------------12/15-15-15-|-4---------------|
|---0-6-6-0-3-3-0-------------|---0-6-6-0-3-3-0-|
    . . . . . . .                 . . . . . . .


Riff D 2tx


Riff C.2
|----------------------------|-----------------------|-----------------------|
|----------------------------|-----------------------|-----------------------|
|-9--------------------------|-----------------------|-----------------------|Gtr
|-9--------11---9--8------5--|-----------------------|-----------------------| I
|-7--------11---9--8------5--|-------------------7---|-------------------7---|
|-0--------9----7--6------3--|-0-332-3h6-6-5h6-6---6-|-0-332-3h6-6-5h6-6---6-|
|                              . ...                   . ...
|
|----------------------------|-----------------------|-----------------------|
|----------------------------|-----------------------|-----------------------|
|-5--------------------------|-----------------------|-----------------------|Gtr
|-6--------11---9--8------5--|-----------------------|-----------------------| II
|-7--------------------------|-------------------7---|-------------------7---|
|-0--------9----7--6------3--|-0-332-3h6-6-5h6-6---6-|-0-332-3h6-6-5h6-6---6-|
|                              . ...                   . ...
|
|--------------------------|-----------------------|-----------------------|
|--------------------------|-----------------------|-----------------------|
|-9------------------------|-----------------------|-----------------------|Gtr
|-9-----------9--8------5--|-----------------------|-----------------------| I
|-7-----------9--8------5--|-------------------7---|-------------------7---|
|-0-----------7--6------3--|-0-332-3h6-6-5h6-6---6-|-0-332-3h6-6-5h6-6---6-|
|                            . ...                   . ...
|
|--------------------------|-----------------------|-----------------------|
|--------------------------|-----------------------|-----------------------|
|--------------------------|-----------------------|-----------------------|Gtr
|-------------9--8------5--|-----------------------|-----------------------| II
|-7------------------------|-------------------7---|-------------------7---|
|-0-----------7--6------3--|-0-332-3h6-6-5h6-6---6-|-0-332-3h6-6-5h6-6---6-|
                             . ...                   . ...

Riff C.1 2tx


Ending
|-------|
|-------|
|-------|Gtrs
|-5---2-|I&II
|-5---2-|
|-3---0-|
comments
print report bad tab
I want to post or [tab]
guest
You may want to rate the tab now too:
select rating
Please do not post tabs as comments. Select "correction" instead!