Oops, an error
Loading. Please wait.

Make Them Suffer Tab

ver1
ver1

Solo

Whole song

Interactive

More versions @911Tabs.com
26,454 views 27 this week
10 commentsread comments
1 2 3 4 5
accurate
x 7
Autoscroll
+/-
esc
set tempo
stop
Contributor
WARNING: You are trying to view
                                    content from Ultimate-Guitar.com
                                    in an unauthorized application,
                                    which is prohibited.

                                    Please use an official Ultimate
                                    Guitar Tabs application for iPhone,
                                    iPad or Android to access legitimate
                                    chords, guitar, bass, and drum tabs
                                    from Ultimate-Guitar.com database.

                                    Type "ultimate guitar tabs" in Apple
                                    App Store's or Android Market's
                                    search to find the application.
Guitar
       S S S S E  E  S S S S E  E     S S S S E  E  S S E  E  E   
A#||-------------------------------|-----------------------------|
F#||-------------------------------|-----------------------------|
C#||*------------------------------|-----------------------------|
G#||*----------6--3----------6--3--|----------6--3---------------|
D#||-------------------------------|-----------------------------|
A#||---1-1-1-1-------1-1-1-1-------|--1-1-1-1-------1-1-2--1--1--|


  E  E  E  E  S S S S E  E     S S S S E  E  S S E  E  E   
----------------------------|-----------------------------|
----------------------------|-----------------------------|
----------------------------|-----------------------------|
--------6--3----------6--3--|----------6--3---------------|
----------------------------|-----------------------------|
--1--1--------1-1-1-1-------|--1-1-1-1-------1-1-2--1--1--|


  S S S S E  E  S S S S E  E     S S S S E  E  S S E  E  E   
------------------------------|-----------------------------|
------------------------------|-----------------------------|
------------------------------|-----------------------------|
----------6--3----------6--3--|----------6--3---------------|
------------------------------|-----------------------------|
--1-1-1-1-------1-1-1-1-------|--1-1-1-1-------1-1-2--1--1--|


  E  E  E  E  S S S S E  E     S S S S E  E  S S E  E  E   
----------------------------|-----------------------------|
----------------------------|-----------------------------|
----------------------------|-----------------------------|
--------6--3----------6--3--|----------6--3---------------|
----------------------------|-----------------------------|
--1--1--------1-1-1-1-------|--1-1-1-1-------1-1-2--1--1--|


  E  E  E  E  E  E  E  E     E  E  E  E  E  E  E  E   
--------------------------|--------------------------|
--------------------------|--------------------------|
--------------------------|-----------------1--------|
--4--------1--------------|--------3-----0-----------|
-----3--2-----------3--2--|-----2-----2--------4--3--|
--------------4--3--------|--4-----------------------|


  E  E  E  E  E  E  E  E     E  E  E  E  E  E  E  E   
--------------------------|--------------------------|
--------------------------|--------------------------|
-----------------1--------|--------------------------|
--------3-----0-----------|--3--------4--------1-----|
-----2-----2-----------2--|--------2-----3--2--------|
--4-----------------4-----|-----4-----------------4--|


  E  E  E  E  E  E  E  E     E  E  E  E  E  E  E  E     E  E  E  E   
--------------------------|--------------------------|--------------|
--------------------------|--------------------------|--------------|
--------------------------|--1-----------------------|--------------|
-----------------3-----0--|-----------------------0--|--------------|
-----3--2-----2-----2-----|-----0--4--3-----2--2-----|-----2-----3--|
--3--------4--------------|--------------4-----------|--4-----4-----|


  S S S S E  E  S S S S E  E     S S S S E  E  S S E  E  E   
------------------------------|-----------------------------|
------------------------------|-----------------------------|
------------------------------|-----------------------------|
----------6--3----------6--3--|----------6--3---------------|
------------------------------|-----------------------------|
--1-1-1-1-------1-1-1-1-------|--1-1-1-1-------1-1-2--1--1--|


    E  E  E  E  S S S S E  E     S S S S E  E  S S E  E  E   3x
|-----------------------------|------------------------------||
|-----------------------------|------------------------------||
|*----------------------------|-----------------------------*||
|*--------6--3----------6--3--|----------6--3---------------*||
|-----------------------------|------------------------------||
|---1--1--------1-1-1-1-------|--1-1-1-1-------1-1-2--1--1---||


   E  S S S S S S S   S  S  S  S  S  S  S  3x
-------------------------------------------||
-------------------------------------------||
*-----------------------------------------*||
*--8--8-8-8-8-8-8-8h-13-11p-8-12p-8-12p-8-*||
-------------------------------------------||
-------------------------------------------||


  E  S S S S S S S   S  S  S  S  S  S  S    E  S S S S S S E  S S S S S S  
-----------------------------------------|--------------------------------|
-----------------------------------------|--------------------------------|
-----------------------------------------|--------------------------------|
--8--8-8-8-8-8-8-8h-13-11p-8-12p-8-12p-8-|--6-----------------------------|
-----------------------------------------|--4--4-4-4-4-4-4-8--------------|
-----------------------------------------|-----------------6--6-6-6-6-6-6-|


  E  S S S S S S E  S S S S S S E  S S S S S S  
-----------------------------------------------|
-----------------------------------------------|
-----------------------------------------------|
-----------------6--------------9--------------|
--5--------------4--4-4-4-4-4-4-7--7-7-7-7-7-7-|
--3--3-3-3-3-3-3-------------------------------|


  E  S S S S S S E  S S S S S S    E  S S S S S S E  S S S S S S  
--------------------------------|--------------------------------|
--------------------------------|--------------------------------|
--------------------------------|--------------------------------|
--6-----------------------------|-----------------6--------------|
--4--4-4-4-4-4-4-8--------------|--5--------------4--4-4-4-4-4-4-|
-----------------6--6-6-6-6-6-6-|--3--3-3-3-3-3-3----------------|


  E  S S S S S S  E  S S S S S S  
---------------------------------|
---------------------------------|
--7--------------10--------------|
--5--5-5-5-5-5-5--8--8-8-8-8-8-8-|
---------------------------------|
---------------------------------|


  E  S S S S S S E  S S S S S S E  S S S S S S  
-----------------------------------------------|
-----------------------------------------------|
--7--------------------------------------------|
--5--5-5-5-5-5-5-6-----------------------------|
-----------------4--4-4-4-4-4-4-8--------------|
--------------------------------6--6-6-6-6-6-6-|


  E  S S S S S S E  S S S S S S E  S S S S S S  
-----------------------------------------------|
-----------------------------------------------|
-----------------------------------------------|
-----------------6--------------9--------------|
--5--------------4--4-4-4-4-4-4-7--7-7-7-7-7-7-|
--3--3-3-3-3-3-3-------------------------------|


  E  S S S S S S E  S S S S S S    E  S S S S S S E  S S S S S S  
--------------------------------|--------------------------------|
--------------------------------|--------------------------------|
--------------------------------|--------------------------------|
--6-----------------------------|-----------------6--------------|
--4--4-4-4-4-4-4-8--------------|--5--------------4--4-4-4-4-4-4-|
-----------------6--6-6-6-6-6-6-|--3--3-3-3-3-3-3----------------|


  E  S S S S S S  E  S S S S S S    E  S S S S S S S   S  S  S  S  S  S  S  
---------------------------------|-----------------------------------------|
---------------------------------|-----------------------------------------|
--7--------------10--------------|-----------------------------------------|
--5--5-5-5-5-5-5--8--8-8-8-8-8-8-|--8--8-8-8-8-8-8-8h-13-11p-8-12p-8-12p-8-|
---------------------------------|-----------------------------------------|
---------------------------------|-----------------------------------------|


  E  S S S S S S S   S  S  S  S  S  S  S    E  E  E  E  E  E  E  E   
-----------------------------------------|--------------------------|
-----------------------------------------|--------------------------|
-----------------------------------------|--------------------------|
--8--8-8-8-8-8-8-8h-13-11p-8-12p-8-12p-8-|--4--------1--------------|
-----------------------------------------|-----3--2-----------3--2--|
-----------------------------------------|--------------4--3--------|


  E  E  E  E  E  E  E  E     E  E  E  E  E  E  E  E   
--------------------------|--------------------------|
--------------------------|--------------------------|
-----------------1--------|-----------------1--------|
--------3-----0-----------|--------3-----0--------3--|
-----2-----2--------4--3--|-----2-----2--------2-----|
--4-----------------------|--4-----------------------|


  E  E  E  E  E  E  E  E     E  E  E  E  E  E  E  E   
--------------------------|--------------------------|
--------------------------|--------------------------|
--------------------------|-----------------------1--|
--4-----4--------1--------|--------------3-----0-----|
-----3-----3--2-----------|--3--2-----2-----2--------|
--------------------4--3--|--------4-----------------|


  E  E  E  E  E  E  E  E     E  E  E  E     E  Q.     H         
--------------------------|--------------|---------------------|
--------------------------|--------------|---------------------|
-----------------------1--|--------------|---------------------|
--------------3-----0-----|-----3--------|--8------------------|
--4--3-----2-----2--------|--2-----------|--6------------------|
--------4-----------------|--------4--3--|--6------------------|


  E  S S S S S S S   S  S  S  S  S  S  S  
-----------------------------------------|
-----------------------------------------|
-----------------------------------------|
--8--8-8-8-8-8-8-8h-13-11p-8-12p-8-12p-8-|
-----------------------------------------|
-----------------------------------------|


    E  S S S S S S S   S  S  S  S  S  S  S      E  S S S S S S E  S S S S S S  
|-------------------------------------------||--------------------------------|
|-------------------------------------------||--------------------------------|
|*-----------------------------------------*||--------------------------------|
|*--8--8-8-8-8-8-8-8h-13-11p-8-12p-8-12p-8-*||--6-----------------------------|
|-------------------------------------------||--4--4-4-4-4-4-4-8--------------|
|-------------------------------------------||-----------------6--6-6-6-6-6-6-|


  E  S S S S S S E  S S S S S S E  S S S S S S  
-----------------------------------------------|
-----------------------------------------------|
-----------------------------------------------|
-----------------6--------------9--------------|
--5--------------4--4-4-4-4-4-4-7--7-7-7-7-7-7-|
--3--3-3-3-3-3-3-------------------------------|


  E  S S S S S S E  S S S S S S    E  S S S S S S E  S S S S S S  
--------------------------------|--------------------------------|
--------------------------------|--------------------------------|
--------------------------------|--------------------------------|
--6-----------------------------|-----------------6--------------|
--4--4-4-4-4-4-4-8--------------|--5--------------4--4-4-4-4-4-4-|
-----------------6--6-6-6-6-6-6-|--3--3-3-3-3-3-3----------------|


  E  S S S S S S  E  S S S S S S  
---------------------------------|
---------------------------------|
--7--------------10--------------|
--5--5-5-5-5-5-5--8--8-8-8-8-8-8-|
---------------------------------|
---------------------------------|


  E  S S S S S S E  S S S S S S E  S S S S S S  
-----------------------------------------------|
-----------------------------------------------|
--7--------------------------------------------|
--5--5-5-5-5-5-5-6-----------------------------|
-----------------4--4-4-4-4-4-4-8--------------|
--------------------------------6--6-6-6-6-6-6-|


  E  S S S S S S E  S S S S S S E  S S S S S S  
-----------------------------------------------|
-----------------------------------------------|
-----------------------------------------------|
-----------------6--------------9--------------|
--5--------------4--4-4-4-4-4-4-7--7-7-7-7-7-7-|
--3--3-3-3-3-3-3-------------------------------|


  E  S S S S S S E  S S S S S S    E  S S S S S S E  S S S S S S  
--------------------------------|--------------------------------|
--------------------------------|--------------------------------|
--------------------------------|--------------------------------|
--6-----------------------------|-----------------6--------------|
--4--4-4-4-4-4-4-8--------------|--5--------------4--4-4-4-4-4-4-|
-----------------6--6-6-6-6-6-6-|--3--3-3-3-3-3-3----------------|


  E  S S S S S S  E  S S S S S S    E  S S S S S S E  S S S S S S  
---------------------------------|--------------------------------|
---------------------------------|--------------------------------|
--7--------------10--------------|--------------------------------|
--5--5-5-5-5-5-5--8--8-8-8-8-8-8-|--8--8-8-8-8-8-8-7--7-8-7-8-7-7-|
---------------------------------|--------------------------------|
---------------------------------|--------------------------------|


   S   S  S   S  S   S  S   S S S E  E  E   
-------------------------------------------|
-------------------------------------------|
--11h-12-11h-13-14p-13-15\--L--------------|
-------------------------------------------|
-------------------------------------------|
------------------------------1-1-1--1--1--|


     S   S  S   S  S   S  S   S S S E  E  E   3x
|---------------------------------------------||
|---------------------------------------------||
|*--11h-12-11h-13-14p-13-15\--L--------------*||
|*-------------------------------------------*||
|---------------------------------------------||
|-------------------------------1-1-1--1--1---||


    S   S  S   S  S   S  S   S S S E  E  E   4x  E  S  S E  E  S  S E  E  E   
---------------------------------------------||------------------------------|
---------------------------------------------||------------------------------|
*--11h-12-11h-13-14p-13-15\--L--------------*||------------------------------|
*-------------------------------------------*||--5----------5----------5-----|
---------------------------------------------||-----3s-4-------3s-4----------|
-------------------------------1-1-1--1--1---||----------3----------3-----3--|


  E  E  E  E  E  E  E  E     E  S  S E  E  S  S E  E  E   
--------------------------|------------------------------|
--------------------------|------------------------------|
--------------------------|------------------------------|
--------------------------|--5----------5----------5-----|
--4--3--0--4--3--0--3-----|-----3s-4-------3s-4----------|
-----------------------4--|----------3----------3-----3--|


  E  E  E  E  E  E  E  E     E  S  S E  E  S  S E  E  E   
--------------------------|------------------------------|
--------------------------|------------------------------|
--------------------------|------------------------------|
--------------------------|--5----------5----------5-----|
--4--3--0--4--3--0--3-----|-----3s-4-------3s-4----------|
-----------------------4--|----------3----------3-----3--|


  E  E  E  E  E  E  E  E     E  S  S E  E  S  S E  E  E   
--------------------------|------------------------------|
--------------------------|------------------------------|
--------------------------|------------------------------|
--------------------------|--5----------5----------5-----|
--4--3--0--4--3--0--3-----|-----3s-4-------3s-4----------|
-----------------------4--|----------3----------3-----3--|


  E  E  E  E  E  E  E  E        S   S  S   S  S   S  S   S S S E  E  E   3x
--------------------------||---------------------------------------------||
--------------------------||---------------------------------------------||
--------------------------||*--11h-12-11h-13-14p-13-15\--L--------------*||
--------------------------||*-------------------------------------------*||
--4--3--0--4--3--0--3-----||---------------------------------------------||
-----------------------4--||-------------------------------1-1-1--1--1---||


   S   S  S   S  S   S  S   S S S E  E  E     E  S  S E  E  S  S E  E  E   
-------------------------------------------|------------------------------|
-------------------------------------------|------------------------------|
--11h-12-11h-13-14p-13-15\--L--------------|------------------------------|
-------------------------------------------|--5----------5----------5-----|
-------------------------------------------|-----3s-4-------3s-4----------|
------------------------------1-1-1--1--1--|----------3----------3-----3--|


  E  E  E  E  E  E  E  E     E  S  S E  E  S  S E  E  E   
--------------------------|------------------------------|
--------------------------|------------------------------|
--------------------------|------------------------------|
--------------------------|--5----------5----------5-----|
--4--3--0--4--3--0--3-----|-----3s-4-------3s-4----------|
-----------------------4--|----------3----------3-----3--|


  E  E  E  E  E  E  E  E     E  S  S E  E  S  S E  E  E   
--------------------------|------------------------------|
--------------------------|------------------------------|
--------------------------|------------------------------|
--------------------------|--5----------5----------5-----|
--4--3--0--4--3--0--3-----|-----3s-4-------3s-4----------|
-----------------------4--|----------3----------3-----3--|


  E  E  E  E  E  E  E  E     E  S  S E  E  S  S E  E  E   
--------------------------|------------------------------|
--------------------------|------------------------------|
--------------------------|------------------------------|
--------------------------|--5----------5----------5-----|
--4--3--0--4--3--0--3-----|-----3s-4-------3s-4----------|
-----------------------4--|----------3----------3-----3--|


  E  E  E  E  E  E  E  E       S S S S E  E  S S S S E  E   
--------------------------||-------------------------------|
--------------------------||-------------------------------|
--------------------------||*----------8--5----------4-----|
--------------------------||*----------6--3----------2--6--|
--4--3--0--4--3--0--3-----||----------------------------4--|
-----------------------4--||---1-1-1-1-------1-1-1-1-------|


  S S S S E  E  S S S S E  E   3x  S S S S E  E  S S S S E  E     S S S S  
-------------------------------||------------------------------|----------|
-------------------------------||------------------------------|----------|
----------4-------------------*||----------8--5----------4-----|----------|
----------2--6-------------3--*||----------6--3----------2--6--|----------|
-------------4----------4--1---||---------------------------4--|----------|
--1-1-1-1-------1-1-1-1-2------||--1-1-1-1-------1-1-1-1-------|--1-1-1-1-|


  E  S S S S S S S   S  S  S  S  S  S  S    E  S S S S S S E  S S S S S S  
-----------------------------------------|--------------------------------|
-----------------------------------------|--------------------------------|
-----------------------------------------|--------------------------------|
--8--8-8-8-8-8-8-8h-13-11p-8-12p-8-12p-8-|--6-----------------------------|
-----------------------------------------|--4--4-4-4-4-4-4-8--------------|
-----------------------------------------|-----------------6--6-6-6-6-6-6-|


  E  S S S S S S E  S S S S S S E  S S S S S S  
-----------------------------------------------|
-----------------------------------------------|
-----------------------------------------------|
-----------------6--------------9--------------|
--5--------------4--4-4-4-4-4-4-7--7-7-7-7-7-7-|
--3--3-3-3-3-3-3-------------------------------|


  E  S S S S S S E  S S S S S S    E  S S S S S S E  S S S S S S  
--------------------------------|--------------------------------|
--------------------------------|--------------------------------|
--------------------------------|--------------------------------|
--6-----------------------------|-----------------6--------------|
--4--4-4-4-4-4-4-8--------------|--5--------------4--4-4-4-4-4-4-|
-----------------6--6-6-6-6-6-6-|--3--3-3-3-3-3-3----------------|


  E  S S S S S S  E  S S S S S S  
---------------------------------|
---------------------------------|
--7--------------10--------------|
--5--5-5-5-5-5-5--8--8-8-8-8-8-8-|
---------------------------------|
---------------------------------|


  E  S S S S S S E  S S S S S S E  S S S S S S  
-----------------------------------------------|
-----------------------------------------------|
--7--------------------------------------------|
--5--5-5-5-5-5-5-6-----------------------------|
-----------------4--4-4-4-4-4-4-8--------------|
--------------------------------6--6-6-6-6-6-6-|


  E  S S S S S S E  S S S S S S E  S S S S S S  
-----------------------------------------------|
-----------------------------------------------|
-----------------------------------------------|
-----------------6--------------9--------------|
--5--------------4--4-4-4-4-4-4-7--7-7-7-7-7-7-|
--3--3-3-3-3-3-3-------------------------------|


  E  S S S S S S E  S S S S S S    E  S S S S S S E  S S S S S S  
--------------------------------|--------------------------------|
--------------------------------|--------------------------------|
--------------------------------|--------------------------------|
--6-----------------------------|-----------------6--------------|
--4--4-4-4-4-4-4-8--------------|--5--------------4--4-4-4-4-4-4-|
-----------------6--6-6-6-6-6-6-|--3--3-3-3-3-3-3----------------|


  E  S S S S S S     E  S S S S S S  
-----------------|------------------|
-----------------|------------------|
--7--------------|--10--------------|
--5--5-5-5-5-5-5-|---8--8-8-8-8-8-8-|
-----------------|------------------|
-----------------|------------------|


   S   S  S   S  S   S  S   S S S E  E  E   
-------------------------------------------|
-------------------------------------------|
--11h-12-11h-13-14p-13-15\--L--------------|
-------------------------------------------|
-------------------------------------------|
------------------------------1-1-1--1--1--|


     S   S  S   S  S   S  S   S S S E  E  E   3x
|---------------------------------------------||
|---------------------------------------------||
|*--11h-12-11h-13-14p-13-15\--L--------------*||
|*-------------------------------------------*||
|---------------------------------------------||
|-------------------------------1-1-1--1--1---||


    S   S  S   S  S   S  S   S S S E  E  E   4x  E  S  S E  E  S  S E  E  E   
---------------------------------------------||------------------------------|
---------------------------------------------||------------------------------|
*--11h-12-11h-13-14p-13-15\--L--------------*||------------------------------|
*-------------------------------------------*||--5----------5----------5-----|
---------------------------------------------||-----3s-4-------3s-4----------|
-------------------------------1-1-1--1--1---||----------3----------3-----3--|


  E  E  E  E  E  E  E  E     E  S  S E  E  S  S E  E  E   
--------------------------|------------------------------|
--------------------------|------------------------------|
--------------------------|------------------------------|
--------------------------|--5----------5----------5-----|
--4--3--0--4--3--0--3-----|-----3s-4-------3s-4----------|
-----------------------4--|----------3----------3-----3--|


  E  E  E  E  E  E  E  E     E  S  S E  E  S  S E  E  E   
--------------------------|------------------------------|
--------------------------|------------------------------|
--------------------------|------------------------------|
--------------------------|--5----------5----------5-----|
--4--3--0--4--3--0--3-----|-----3s-4-------3s-4----------|
-----------------------4--|----------3----------3-----3--|


  E  E  E  E  E  E  E  E     E  S  S E  E  S  S E  E  E   
--------------------------|------------------------------|
--------------------------|------------------------------|
--------------------------|------------------------------|
--------------------------|--5----------5----------5-----|
--4--3--0--4--3--0--3-----|-----3s-4-------3s-4----------|
-----------------------4--|----------3----------3-----3--|


  E  E  E  E  E  E  E  E        S   S  S   S  S   S  S   S S S E  E  E   3x
--------------------------||---------------------------------------------||
--------------------------||---------------------------------------------||
--------------------------||*--11h-12-11h-13-14p-13-15\--L--------------*||
--------------------------||*-------------------------------------------*||
--4--3--0--4--3--0--3-----||---------------------------------------------||
-----------------------4--||-------------------------------1-1-1--1--1---||


   S   S  S   S  S   S  S   S S S E  E  E     E  S  S E  E  S  S E  E  E   
-------------------------------------------|------------------------------|
-------------------------------------------|------------------------------|
--11h-12-11h-13-14p-13-15\--L--------------|------------------------------|
-------------------------------------------|--5----------5----------5-----|
-------------------------------------------|-----3s-4-------3s-4----------|
------------------------------1-1-1--1--1--|----------3----------3-----3--|


  E  E  E  E  E  E  E  E     E  S  S E  E  S  S E  E  E   
--------------------------|------------------------------|
--------------------------|------------------------------|
--------------------------|------------------------------|
--------------------------|--5----------5----------5-----|
--4--3--0--4--3--0--3-----|-----3s-4-------3s-4----------|
-----------------------4--|----------3----------3-----3--|


  E  E  E  E  E  E  E  E     E  S  S E  E  S  S E  E  E   
--------------------------|------------------------------|
--------------------------|------------------------------|
--------------------------|------------------------------|
--------------------------|--5----------5----------5-----|
--4--3--0--4--3--0--3-----|-----3s-4-------3s-4----------|
-----------------------4--|----------3----------3-----3--|


  E  E  E  E  E  E  E  E     E  S  S E  E  S  S E  E  E   
--------------------------|------------------------------|
--------------------------|------------------------------|
--------------------------|------------------------------|
--------------------------|--5----------5----------5-----|
--4--3--0--4--3--0--3-----|-----3s-4-------3s-4----------|
-----------------------4--|----------3----------3-----3--|


  E  E  E  E  E  E  E  E        S   S  S   S  S   S  S   S S S E  E  E     
--------------------------||---------------------------------------------||
--------------------------||---------------------------------------------||
--------------------------||*--11h-12-11h-13-14p-13-15\--L--------------*||
--------------------------||*-------------------------------------------*||
--4--3--0--4--3--0--3-----||---------------------------------------------||
-----------------------4--||-------------------------------1-1-1--1--1---||


   S   S  S   S  S   S  S   S S S E  E  E    
-------------------------------------------||
-------------------------------------------||
--11h-12-11h-13-14p-13-15\--L--------------||
------------------------------3-3-3--3--L--||
------------------------------1-1-1--1--L--||
------------------------------1-1-1--1--L--||




Duration Legend
---------------
W - whole
H - half
Q - quarter
E - 8th
S - 16th
T - 32nd
X - 64th
. - note dotted
|-n-|  - n-tuplets


Tablature Legend
----------------
L - tied note
x - dead note
g - grace note
(n) - ghost note
> - accentuded note
NH - natural harmonic
AH - artificial harmonic
TH - tapped harmonic
SH - semi harmonic
PH - pitch harmonic
h - hammer on
p - pull off
b - bend
br - bendRelease
pb - preBend
pbr - preBendRelease
brb - bendReleaseBend
\n/ - tremolo bar dip
\n - tremolo bar dive
-/n - tremolo bar Release up
/n\ - tremolo bar inverted dip
/n - tremolo bar return
-\n - tremolo bar Release down
S - shift slide
s - legato slide
/ -  slide into from below or out of upwards
\ -  slide into from above or out of downwards
~ - vibrato
W - wide vibrato
tr - trill
TP - tremolo picking
T - tapping
S - slap
P - pop
< - fade in
^ - brush up
v - brush down
comments
print report bad tab
10 comments total. Showing first comments.
0 reply
offbeat wrote on May 17 2007, 05:10 pm

I didnt actually try it, but it looks pretty impresive.

0 reply
Negative_Creep7 wrote on June 6 2007, 02:57 am

It would help if it was organized a bit

0 reply
metalfreak_6666 wrote on July 1 2007, 02:06 am

yeah i have no clue whats what besides the intro

I want to post or [tab]
guest
You may want to rate the tab now too:
select rating
Please do not post tabs as comments. Select "correction" instead!