Oops, an error
Loading. Please wait.

Meat Hook Sodomy Tab

ver2
ver2

Whole song

More versions @911Tabs.com
751 views 1 this week
no commentswrite comment
1 2 3 4 5
please rate
Autoscroll
+/-
esc
set tempo
stop
Contributor
WARNING: You are trying to view
                                    content from Ultimate-Guitar.com
                                    in an unauthorized application,
                                    which is prohibited.

                                    Please use an official Ultimate
                                    Guitar Tabs application for iPhone,
                                    iPad or Android to access legitimate
                                    chords, guitar, bass, and drum tabs
                                    from Ultimate-Guitar.com database.

                                    Type "ultimate guitar tabs" in Apple
                                    App Store's or Android Market's
                                    search to find the application.
Cannibal Corpse - Meathook Sodomy
Album:Butchered at Birth (1991)                     
Tabbed by:Jordam Brooks (weinersandbeans@hotmail.com)   
   
   h=hammer on  
   p=pull off
   pm=palm mute
   /=slide
   ph=pinch harmonic
   (trill)=hammer on and pull of between nots

   Eb Ab Db Gb Bb eb
                                                          
   |--------------------------------------|                   
   |--------------------------------------|                
   |--------------------------------------|               
   |--------------------------------------| riff A (both guitars) 8x       
   |6h7----10p9----8h9------10h11p10/11h12|               
   |----00------00------00----------------|               
        pm      pm      pm                                 
                                                           
   |------------------------------|                          
   |------------------------------|                         
   |------------------------------|                         
   |3------5------4---------------| riff B (both guitars) 8x                
   |3------5------4---------------|                        
   |1-0000-3-0000-2-0000-3h4p3/4h5|                        
      pm..   pm..   pm..                                  
                                                           
   |--------------------------------------|                   
   |--------------------------------------|                
   |--------------------------------------|               
   |--------------------------------------| riff A (both guitars) 4x       
   |6h7----10p9----8h9------10h11p10/11h12|               
   |----00------00------00----------------|               
        pm      pm      pm                                                                 
   
   |-------------------------------|                    
   |-------------------------------|                     
   |-------------------------------|                      
   |2-------5-------3--------------| riff C (both guitars) 4x            
   |2-------5-------3-------4/5/3/4|                    
   |0-0-0-0-3-0-0-0-1-0-0-0-2/3/1/2|                     
      pm. .   pm. .   pm. .                                               

   |-------------------------------|
   |-------------------------------|
   |-------------------------------|
   |-------------------------------| riff D (both guitars) 4x
   |--9-6-----8-5-----7-4-----6-3--|
   |0-7-4-0-0-6-3-0-0-5-2-0-0-4-1-0|
    pm. . . . . . . . . . . . . . .

   |-------------------------------|                    
   |-------------------------------|                     
   |-------------------------------|                      
   |2-------5-------3--------------| riff C (both guitars) 4x            
   |2-------5-------3-------4/5/3/4|                    
   |0-0-0-0-3-0-0-0-1-0-0-0-2/3/1/2|                     
      pm. .   pm. .   pm. .                                               

   |-------------------------------|
   |-------------------------------|
   |-------------------------------|
   |-------------------------------| riff D (both guitars) 4x
   |--9-6-----8-5-----7-4-----6-3--|
   |0-7-4-0-0-6-3-0-0-5-2-0-0-4-1-0|
    pm. . . . . . . . . . . . . . .

   |--------------------------------------|                   
   |--------------------------------------|                
   |--------------------------------------|               
   |--------------------------------------| riff A (both guitars) 8x       
   |6h7----10p9----8h9------10h11p10/11h12|               
   |----00------00------00----------------|               
        pm      pm      pm                   

   |--------------------------------|--------------------------------|
   |--------------------------------|--------------------------------|
   |--------------------------------|--------------------------------|
   |--------------------------------|--------------------------------| riff E (both guitars) 2x
   |--------------------------------|--------------------------------|
   |33336666000033332222555511114444|33336666000033331111444422225555|

  
   |----------------------------------------------------------------|
   |----------------------------------------------------------------|
   |----------------------------------------------------------------|
   |----------------------------------------------------------------| 
   |----------------------------------------------------------------|
   |3333333366666666000000003333333322222222555555551111111144444444|
                                                                      riff F (both guitars) 1x
   |----------------------------------------------------------------|
   |----------------------------------------------------------------|
   |----------------------------------------------------------------|
   |----------------------------------------------------------------| 
   |----------------------------------------------------------------|
   |3333333366666666000000003333333311111111444444442222222255555555|
   
  
   |----------------|----------------|
   |----------------|----------------|
   |----------------|----------------|
   |----------------|----------------| riff G (both guitars) 2x
   |----------------|----------------|
   |3366003322551144|3366003311442255|


   |------------------------|
   |------------------------|
   |------------------------|
   |------------------------| riff H (both guitars) 8x
   |-------9-7-5------------|
   |2222---7-5-3-2h3p2h3p2h3|
    pm..   pm. .   (trill)

   
   

   {Bridg}
   
   |---------------------------------|              
   |---------------------------------|
   |---------------------------------|
   |--------------------------------3| (both guitars) 3x
   |543-432-----432-321-----321-210-3|
   |--------543---------432---------1|
    pm. ... ... ... ... ... ... ...    
                                         
   


   Guitar one
   |--------------------------------------------------------------------|              
   |--------------------------------------------------------------------|
   |--------------------------------------------------------------------|
   |--------------------------------3----------------------------------3| 
   |543-432-----432-321-----321-210-3--543-432-----432-321-----321-210-3|
   |--------543---------432---------1----------543---------432---------1|
    pm. ... ... ... ... ... ... ...    pm. ... ... ... ... ... ... ...
   
   Guitar two
   |--------------------------------------------------------------------|              
   |--------------------------------------------------------------------|
   |--------------------------------------------------------------------|
   |--------------------------------3--7-----------6-------------------3| 
   |543-432-----432-321-----321-210-1--5-----------4-----------321-210-1|
   |--------543---------432---------1--5-----------4-------------------1|
    pm. ... ... ... ... ... ... ...                            pm. ...

   
   

   Guitar one
   |----------------------------------------------------------------------|              
   |----------------------------------------------------------------------|
   |----------------------------------------------------------------------|
   |----------------------------------3----------------------------------3| 
   |--543-432-----432-321-----321-210-3--543-432-----432-321-----321-210-3|
   |----------543---------432---------1----------543---------432---------1|
      pm. ... ... ... ... ... ... ...    pm. ... ... ... ... ... ... ...

   Guitar two
   |----------------------------------------------------------------------|
   |----------------------------------------------------------------------|
   |----------------------------------------------------------------------|  
   |--7-----------6-------------------3--7-----------6-------------------3|   
   |--5-----------4-----------321-210-1--5-----------4-----------321-210-1|
   |--5-----------4-------------------1--5-----------4-------------------1|
                              pm. ...                            pm. ...




   Guitar one
   |----------------------------------------------------------------------|              
   |----------------------------------------------------------------------|
   |----------------------------------------------------------------------|
   |----------------------------------3----------------------------------3| 
   |--543-432-----432-321-----321-210-3----------------------------------3|
   |----------543---------432---------1--000-000-000-000-000-000-000-000-1|
      pm. ... ... ... ... ... ... ...    
   
   Guitar two
   |----------------------------------------------------------------------|
   |----------------------------------------------------------------------|
   |----------------------------------------------------------------------|  
   |--7-----------6-------------------3----------------------------------3|   
   |--5-----------4-----------321-210-3--543-432-----432-321-----321-210-3|
   |--5-----------4-------------------1----------543---------432---------1|
                              pm. ...    pm. ... ... ... ... ... ... ...




   Guitar one
   |----------------------------------------------------------------------|
   |----------------------------------------------------------------------|
   |----------------------------------------------------------------------|  
   |----------------------------------3----------------------------------3|   
   |----------------------------------3----------------------------------3|
   |--000-000-000-000-000-000-000-000-1--000-000-000-000-000-000-000-000-1|
     

   Guitar two
   |----------------------------------------------------------------------|
   |----------------------------------------------------------------------|
   |----------------------------------------------------------------------|  
   |----------------------------------3--7-----------6-------------------3|   
   |--543-432-----432-321-----321-210-1--5-----------4-----------321-210-1|
   |----------543---------432---------1--5-----------4-------------------1|
      pm. ... ... ... ... ... ... ...                            pm. ...




   
   |----------------------------------|
   |----------------------------------|
   |----------------------------------|  
   |--7-----------6------------------3| both guitars 1x  
   |--5-----------4----------321-210-3|
   |--5-----------4------------------1|
                             pm. ...
   
   |---------------------------------|              
   |---------------------------------|
   |---------------------------------|
   |--------------------------------3| both guitars 4x
   |543-432-----432-321-----321-210-3|
   |--------543---------432---------1|
    pm. ... ... ... ... ... ... ...    
                                         
  

   

   |--------------------------|
   |--------------------------|
   |--------------------------|  
   |------------------------4-| riff I (both guitars) 7x 
   |--------------------4-7---|
   |5555564444453333342-------|
                        pm. ph

   |----------------|----------------|
   |----------------|----------------|
   |----------------|----------------|
   |----------------|----------------| riff G (both guitars) 2x
   |----------------|----------------|
   |3366003322551144|3366003311442255|


   |----------------------------------------------------------------|
   |----------------------------------------------------------------|
   |----------------------------------------------------------------|
   |----------------------------------------------------------------| 
   |----------------------------------------------------------------|
   |3333333366666666000000003333333322222222555555551111111144444444|
                                                                      riff F (both guitars) 1x
   |----------------------------------------------------------------|
   |----------------------------------------------------------------|
   |----------------------------------------------------------------|
   |----------------------------------------------------------------| 
   |----------------------------------------------------------------|
   |3333333366666666000000003333333311111111444444442222222255555555|


   |--------------------------|
   |--------------------------|
   |--------------------------| riff J (both guitars) 4x
   |--------------------------| (trill longer on the forth time) 
   |-------11-9-7-------------|
   |4444----9-7-5-4h5p4h5p4h5-|
    pm..    pm. .   (trill)   

   |------------------------------|                          
   |------------------------------|                         
   |------------------------------|                         
   |3------5------4---------------| riff B (both guitars) 2x                
   |3------5------4---------------|                        
   |1-0000-3-0000-2-0000-3h4p3/4h5|                        
      pm..   pm..   pm..                   

   |--------------------------------------|                   
   |--------------------------------------|                
   |--------------------------------------|               
   |--------------------------------------| riff A (both guitars) 2x       
   |6h7----10p9----8h9------10h11p10/11h12|               
   |----00------00------00----------------|               
        pm      pm      pm                            

   |------------------------------|                          
   |------------------------------|                         
   |------------------------------|                         
   |3------5------4---------------| riff B (both guitars) 1x                
   |3------5------4---------------|                        
   |1-0000-3-0000-2-0000-3h4p3/4h5|                        
      pm..   pm..   pm..                   

   |--------------------------------------|                   
   |--------------------------------------|                
   |--------------------------------------|               
   |--------------------------------------| riff A (both guitars) 1x       
   |6h7----10p9----8h9------10h11p10/11h12|               
   |----00------00------00----------------|               
        pm      pm      pm                            

   |------------------------------|                          
   |------------------------------|                         
   |------------------------------|                         
   |3------5------4---------------| riff B (both guitars) 1x                
   |3------5------4---------------|                        
   |1-0000-3-0000-2-0000-3h4p3/4h5|                        
      pm..   pm..   pm..                  

   |--------------------------------------|                   
   |--------------------------------------|                
   |--------------------------------------|               
   |--------------------------------------| riff A (both guitars) 1x       
   |6h7----10p9----8h9------10h11p10/11h12|               
   |----00------00------00----------------|               
        pm      pm      pm                      

   |--------------------------------------------------------------|                          
   |--------------------------------------------------------------|                         
   |--------------------------------------------------------------|                         
   |3------5------4----------------3------5------4-------5h6p5/6h7| riff K 2x             
   |3------5------4----------------3------5------4----------------|                        
   |1-0000-3-0000-2-0000-3h4p3/4h5-1-0000-3-0000-2-0000-----------|                        
      pm..   pm..   pm..             pm..   pm..   pm..
                                                                       If u find any mistakes e-mail me
comments
We did not receive enough feedback on this tab! Please rate:
1 2 3 4 5
I want to post or [tab]
guest
You may want to rate the tab now too:
select rating
Please do not post tabs as comments. Select "correction" instead!