Oops, an error
Loading. Please wait.

Monolith Tab

ver2
ver2

Whole song

More versions @911Tabs.com
539 views 1 this week
no commentswrite comment
1 2 3 4 5
please rate
Autoscroll
+/-
esc
set tempo
stop
Contributor
Difficulty
intermediate
WARNING: You are trying to view
                                    content from Ultimate-Guitar.com
                                    in an unauthorized application,
                                    which is prohibited.

                                    Please use an official Ultimate
                                    Guitar Tabs application for iPhone,
                                    iPad or Android to access legitimate
                                    chords, guitar, bass, and drum tabs
                                    from Ultimate-Guitar.com database.

                                    Type "ultimate guitar tabs" in Apple
                                    App Store's or Android Market's
                                    search to find the application.
Cannibal Corpse - Monolith (1996)

NOTES:
() - tremolo picking note
"  - tremolo picking notes
x - hard palm muting
tr - trill

h - hammer on              ~ - vibrato
p - pull off               b - bend string
^ - pinch harmonics        p.m. - palm mute
x - muted note             t - right hand tap
/ - slide up               \ - slide down

TUNING: Bb|Eb|Ab|Db|gb|bb|eb

[Part 1]                  [Part 2] (x4)
-|-----------------------|-------------------------------------------|
-|-----------------------|-------------------------------------------|
-|-----------------------|----------3p0-------------6004003040030010-|
-|------3-2-0------3-2-0-|------2p0-----3p0-2p0-1p0------------------|
-|-4"..-------4"..-------|-1"..--------------------------------------|
-|-----------------------|-------------------------------------------|
 |                       |                                           |
-|-----------------------|-------------------------------------------|
-|-----------------------|-------------------------------------------|
-|-----------------------|----------3p0-------------6004003040030010-|
-|-----10-9-7------7-6-4-|------2p0-----3p0-2p0-1p0------------------|
-|-4"..-8-7-5-4"..-5-4-2-|-1"..--------------------------------------|
-|-----------------------|-------------------------------------------|
        . . .      . . .

[Part 3] (x2)            [Part 1]
-|----------------------|--------|
-|----------------------|--0--/--|
-|-------6"-3"----------|----/---|
-|-------------4"-7"...-|---/----|
-|-7"-4"----------------|--/-0---|
-|----------------------|--------|
 |                      |        |
-|----------------------|--------|
-|----------------------|--0--/--|
-|-------------11"-14".-|----/---|
-|-------8"-11"---------|---/----|
-|-4"-7"----------------|--/-0---|
-|----------------------|--------|

[Part 4]
-|-----------------------|
-|-----------------------|
-|-6004003040030010------|
-|-----------------------|
-|-----------------------|
-|------------------[x4]-|
 |                       |
-|-----------------------|
-|-----------------------|
-|-3===============------|
-|-3===============------|
-|-1===============------|
-|-----------------------|

[Part 5] (x2)
-|---------------------------------|---------------------------------|
-|---------------------------------|---------------------------------|
-|---------------------------------|---------------------------------|
-|-2==============================-|-=============-=======-====-===--|
-|-2==============================-|-=============-=======-====-===--|
-|-0==============================-|-=============-=======-====-===--|
 |                                 |                                 |
-|---------------------------------|---------------------------------|
-|---------------------------------|---------------------------------|
-|---------------------------------|---------------------------------|
-|---------------------------------|-----------------------------^---|
-|-6-----5-----9-----8-----5---3---|-6-----5-----9-----8-----5---3~~-|
-|-4-000-3-000-7-000-6-000-3-0-1-0-|-4-000-3-000-7-000-6-000-3-0-----|
   . ... . ... . ... . ... . . . .   . ... . ... . ... . ... . .

[VERSE]
-|------------------||--[Part 4]--||--[Part 3]--|--[Part 1]--|
-|------------------||------------||------------|------------|
-|-6004003040030010-||------------||------------|------------|
-|------------------||----[x3]----||----[x2]----|------------|
-|------------------||------------||------------|------------|
-|------------------||------------||------------|------------|

[Part 6] (x4)
-|-----------------|-----------------|-----------------|-----------------|
-|-----------------|-----------------|-----------------|-----------------|
-|-----------------|-----------------|-----------------|-----------------|
-|-----------------|-----------------|-----------------|-----------------|
-|-1---------------|-----4-1-------1-|-------4-------1-|-------4---------|
-|---3-0-0-4-0-0-1-|-0-0-----0-0-0---|-3-0-3---0-0-0---|-3-0-3---0-0-0-3-|
   . . . . . . . .   . . . . . . . .   . . . . . . . .   . . . . . . . .

[Outro 1]
-|-------------------------------|
-|-------------------------------|
-|-------------------------------|
-|-------------------------------|
-|-------------------------------|
-|-6-3-3-6-6-3-3-6-6-3-3-6-6-3-6-|
   . . . . . . . . . . . . . . .

[Part 7] (x2)
-|-----------------|-----------------|-----------------|-----------------|
-|-----------------|-----------------|-----------------|-----------------|
-|-----------------|-----------------|-----------------|-----------------|
-|-----------------|-----------------|-----------------|-----------------|
-|-4---------------|---------4-------|-4---------------|-4---------------|
-|---0-3-3-6-3-3-6-|-6-0-0-0---0-3-3-|---3-3-3-0-0-0-0-|---3-3-3-0-0-0-0-|
   . . . . . . . .   . . . . . . . .   . . . . . . . .   . . . . . . . .

[Part 8] (x4)
-|-----------------|-----------------|---------------------------|
-|-----------------|-----------------|---------------------------|
-|-----------------|-----------------|---------------------------|
-|-----------------|-----------------|---------------------------|
-|-----------------|---------4-------|-4"..-8"-7"-[7tr10]-[4tr7]-|
-|-6-3-0-0-6-3-6-3-|-0-0-0-3---0-0-0-|---------------------------|
   . . . . . . . .   . . . . . . . .

[Outro 2]             [Part 9]
-|------------------||-------------------------|-[ending 1 - 3]-----------|
-|------------------||-------------------------|--------------------------|
-|------------------||-----2255----------------|-----2255-----------------|
-|10-9-7------7-6-4-||------------8-3/5-6------|--------------------------|
-|-8-7-5-4"..-5-4-2-||-3366----33-6-1/3-4------|-3366-----0-1-3-4-0-3-4-6-|
-|------------------||--------------------[x3]-|--------------------------|
 | . . .      . . . ||                         |          . . . . . . . . |
-|------------------||-------------------------|--------------------------|
-|------------------||-------------------------|--------------------------|
-|------------------||-------------------------|--------------------------|
-|10-9-7------7-6-4-||-----4477---8-3/5-6------|-----4477-----------------|
-|-8-7-5-4"..-5-4-2-||-3366----33-6-1/3-4------|-3366-----0-1-3-4-0-3-4-6-|
-|------------------||--------------------[x3]-|--------------------------|
   . . .      . . .                                       . . . . . . . .

-|-[ending 2]-------------------|-[ending 4]----------------------|
-|------------------------------|---------------------------------|
-|------------------------------|---------------------------------|
-|------------------------------|---------------------------------|
-|-3366-0-1-3-4-0-3-4-6-0-4-6-7-|-0-1-3-4-0-3-4-6-0-4-6-7-0-6-7-9-|
-|------------------------------|---------------------------------|
        . . . . . . . . . . . .   . . . . . . . . . . . . . . . .

[Part 10]
-|--------------------------------------|-[ending 1]--------------|
-|--------------------------------------|-------------------------|
-|--------------------------------------|-------------------------|
-|-----------------------4--------------|-------------------------|
-|-7-6-4-0-6-4-3-0-3-6-0---6-4-3-0------|-7-6-4-0-6-4-3-0-3".....-|
-|---------------------------------[x3]-|-------------------------|
 | . . . . . . . . . . . . . . . .      | . . . . . . . .         |
-|--------------------------------------|-------------------------|
-|--------------------------------------|-------------------------|
-|--------------------------------------|-------------------------|
-|-----------------------4--------------|-------------------------|
-|-7-6-4-0-6-4-3-0-3-6-0---6-4-3-0------|-7-6-4-0-6-4-3-0---------|
-|---------------------------------[x3]-|-----------------5".....-|
   . . . . . . . . . . . . . . . .        . . . . . . . .

-|-[ending 2]-----------------|--[Part 7]-&-[Part 8]--|
-|----------------------------|-----------------------|
-|----------------------------|-----------------------|
-|-5"-------4"----------------|----------[x2]---------|
-|----4"-3"----3"-4"-0"-3"-0"-|-----------------------|
-|----------------------------|-----------------------|
 |                            |                       |
-|----------------------------|--[Part 7]-&-[Part 8]--|
-|----------------------------|-----------------------|
-|----------------------------|-----------------------|
-|-2"-------1"----------------|----------[x2]---------|
-|----4"-3"----3"-4"-3"-1"-0"-|-----------------------|
-|----------------------------|-----------------------|

[Part 11] /under solo 1/  [part 12] /under solo 2/
-|-----------------------|-----------------------------|
-|-----------------------|-----------------------------|
-|-----------------------|-----------------------------|
-|-6"..-6-4-3------------|---------------9"-12"..------|
-|------------5"-2"------|--------10"-7"---------------|
-|------------------[x4]-|-7"-10"-----------------[x4]-|

[Outro 3]
-|-----------------------|
-|-----------------------|
-|-----------------------|
-|------8-7-5------5-7-8-|
-|-2"..-6-5-3-2"..-3-5-6-|
-|-----------------------|
        . . .      . . .

[Part 12]
-|-----------------------|-----------------------|--[Part 1]--|
-|-----------------------|-----------------------|------------|
-|-6004003040030010------|-6004003040030010------|------------|
-|-----------------------|-----------------------|------------|
-|-----------------------|-----------------------|----[x4]----|
-|------------------[x4]-|------------------[x4]-|------------|
 |                       |                       |            |
-|-----------------------|-----------------------|--[Part 1]--|
-|-----------------------|-----------------------|------------|
-|-2===============------|-----------------------|------------|
-|-2===============------|-4===============------|------------|
-|-0===============------|-4===============------|----[x4]----|
-|-----------------------|-2===============------|------------|

[Part 13a]
-|----------------------|-------------------|
-|-------------7"-10"..-|-------------------|
-|-------3"-6"----------|-------------------|
-|----------------------|-------------------|
-|-4"-7"----------------|-7"10"6"9"5"8"4"7"-|
-|----------------------|-------------------|

[Part 13b]
-|----------------------|-------------------|-[Part 13a]-|-[Part 13b]-|
-|-------------7"-10"..-|-------------------|------------|------------|
-|-------3"-6"----------|-------------------|------------|------------|
-|----------------------|-------------------|------------|------------|
-|-4"-7"----------------|-7"10"6"9"5"8"4"7"-|------------|------------|
-|----------------------|-------------------|------------|------------|
 |                      |                   |            |            |
-|----------------------|-------------------|-[Part 13a]-|-[Part 13b]-|
-|-------------4"-7"...-|-4"7"3"6"2"5"1"4"--|------------|------------|
-|----------------------|-------------------|------------|------------|
-|-------5"-8"----------|-------------------|------------|------------|
-|-1"-4"----------------|-------------------|------------|------------|
-|----------------------|-------------------|------------|------------|

[Ending Part]
-|------------------|-------------------------------|
-|------------------|-------------------------------|
-|------------------|-------------------------------|
-|------------------|-------------------------------|
-|-2-2-2-4/5~-------|-8\6-6-9/11-11-----9\4-6-2-2-2-|
-|-0-0-0-2/3~-[x16]-|-6\4-4-7/9--9-[x3]-6\4-4-0-0-0-|
   . . .                                      . . .

END OF SONG
comments
We did not receive enough feedback on this tab! Please rate:
1 2 3 4 5
I want to post or [tab]
guest
You may want to rate the tab now too:
select rating
Please do not post tabs as comments. Select "correction" instead!