Oops, an error
Loading. Please wait.

Orgasm Through Torture Tab

ver1
ver1

Whole song

Interactive

More versions @911Tabs.com
1,482 views 3 this week
no commentswrite comment
1 2 3 4 5
worth learning
x 1
Autoscroll
+/-
esc
set tempo
stop
Contributor
Difficulty
intermediate
Hey! There's an official Ultimate Guitar app which is ideal
for learning songs when you're away from computer. Get the app
WARNING: You are trying to view
                                    content from Ultimate-Guitar.com
                                    in an unauthorized application,
                                    which is prohibited.

                                    Please use an official Ultimate
                                    Guitar Tabs application for iPhone,
                                    iPad or Android to access legitimate
                                    chords, guitar, bass, and drum tabs
                                    from Ultimate-Guitar.com database.

                                    Type "ultimate guitar tabs" in Apple
                                    App Store's or Android Market's
                                    search to find the application.
Cannibal Corpse - Orgasm Through Torture (1996)

. - palm mute
h - hammer on
p - pull off
tr - trill
/ - slide up
\ - slide down
ah - artificial harmonic

Tuning in Db

riff 1                           x4
|----------------|----------------|----|
|----------------|----------------|----|
|----------ah----|----------------|----| GTRI
|----------4-ah--|----------------|----|
|4---2-------3---|----------------|4---|
|--5-----3-------|0000000000000000|--5-|
|. .              ................ . .
|
|----------------|----------------|----|
|----------------|----------------|----|
|----------------|----------------|----| GTRII
|----1-----------|----555522222222|----|
|4---2-----------|3333------------|4---|
|--5-------------|----------------|--5-|
 . .              ................ . .

riff 2                                                               x2
|----------------|----------------|----------------|----------------|
|----------------|----------------|------------4444|44442222--------|
|----------------|----------------|--------2222----|--------55555555| GTRI
|----------------|----------------|44444444--------|----------------|
|----------------|5555555555555555|----------------|----------------|
|2222222222222222|----------------|----------------|----------------|
|................ ................ ................ ................
|
|----------------|----------------|----------------|----------------|
|----------------|----------------|----------------|----------------|
|----------------|----------------|----------------|----------------| GTRII
|----------------|--4-------------|1-------55552222|22224444--------|
|2---------------|2---5-2-1-------|2---------------|--------33333333|
|0---0-3-2-0-2-3-|----------4-5-6-|----------------|----------------|
     . . . . . .  .   . . . . . .          ........ ................

riff 1                           x4
|----------------|----------------|----|
|----------------|----------------|----|
|----------ah----|----------------|----| GTRI
|----------4-ah--|----------------|----|
|4---2-------3---|----------------|4---|
|--5-----3-------|0000000000000000|--5-|
|. .              ................ . .
|
|----------------|----------------|----|
|----------------|----------------|----|
|----------------|----------------|----| GTRII
|----1-----------|----555522222222|----|
|4---2-----------|3333------------|4---|
|--5-------------|----------------|--5-|
 . .              ................ . .

riff 3            x2
|----------------|
|----------------|
|----------------| GTRI+GTRII
|----------------|
|4---4---4---4---|
|2---2---2---2---|
 .   .   .   .

riff 4          x2                 1,3_____________ 2,4_____________
|----------------|----------------|----------------|----------------|
|----------------|----------------|----------------|----------------|
|----------------|----------------|----------------|----------------| GTRI
|--------1111----|2222----5555----|1111444444444444|----222222222222|
|----2222----2222|----3333----3333|----------------|1111------------|
|2222------------|----------------|----------------|----------------|
|................ ................ ................ ................
|                                  1,2_____________ 3,4_____________
|----------------|----------------|----------------|----------------|
|----------------|----------------|----------------|----------------|
|----------------|----------------|----------------|----------------| GTRII
|6666----5555----|----------------|----------------|----------------|
|----7777----6666|4444----7777----|3333666666666666|----444444444444|
|----------------|----5555----5555|----------------|3333------------|
 ................ ................ ................ ................

riff 5                                 x4
|------------|----------------|-------|
|------------|----------------|-------|
|------------|----------------|-------| GTRI+GTRII
|4/3---------|----4/3---------|-------|
|2/1---4\5---|5\6-2/1---4\5---|5\6-4\5|
|----0-2\3-0-|3\4-----0-2\3-0-|3\4-2\3|
     .     .          .     .

riff 6                                                                x2
|----------------|----------------|----------------|-------------------|
|----------------|----------------|----------------|-------------------|
|----------------|----------------|----------------|-------------------| GTRI
|----------------|----------------|----4/3---------|-------------------|
|----------------|5555555555555555|5\6-2/1---4\5---|5\6-4\5-5\6-7\8-9/8|
|2222222222222222|----------------|3\4-----0-2\3-0-|3\4-2\3-3\4-5\6-7/6|
|................ ................         .     .
|
|----------------|----------------|----------------|-------------------|
|----------------|----------------|----------------|-------------------|
|----------------|----------------|----------------|-------------------| GTRII
|----------------|----------------|----4/3---------|-------------------|
|----------------|----------------|5\6-2/1---4\5---|5\6-4\5-5\6-7\8-9/8|
|6666666666666666|7777777777777777|3\4-----0-2\3-0-|3\4-2\3-3\4-5\6-7/6|
 ................ ................         .     .

riff 7
|------------|------------------|
|------------|------------------|
|------------|------------------| GTRI
|------------|5-------------4---|
|4-----------|3-7---7-4---3---3-|
|2-0000000000|--5---5-2---------|
|  ..........
|
|------------|------------------|
|------------|------------------|
|------------|------------------| GTRII
|------------|5-------------4---|
|4-----------|3-7---7-4---3---3-|
|2-----------|--5---5-2---------|


riff 8a                      x2
|---------------------------|
|---------------------------|
|---------------------------| GTRI
|---------------------------|
|---------------------------|
|0(tr3)-2(tr5)-3(tr6)-2(tr5)|
|
|
|---------------------------|
|---------------------------|
|---------------------------| GTRII
|---------------------------|
|---------------------------|
|3(tr6)-5(tr8)-6(tr9)-5(tr8)|


riff 8b
|------------|----------------|
|------------|----------------|
|------------|----------------| GTRI
|------------|5-----------5---|
|4-----------|3-7---7-4---3-7-|
|2-0000000000|--5---5-2-----5-|
|  ..........
|
|------------|----------------|
|------------|----------------|
|------------|----------------| GTRII
|------------|5-----------5---|
|7-----------|3-7---7-4---3-7-|
|5-5555555555|--5---5-2-----5-|
   ..........

riff 8c
|---------------------------|---------------------------|------------|---------------------------|
|---------------------------|---------------------------|------------|---------------------------|
|---------------------------|---------------------------|------------|---------------------------| GTRI
|---------------------------|---------------------------|------------|---------------------------|
|---------------------------|2(tr5)-1(tr4)-2(tr5)-1(tr4)|5/4-4-5-5/4-|-------3(tr6)-2(tr5)-1(tr4)|
|0(tr3)-2(tr5)-3(tr6)-2(tr5)|---------------------------|3/2-2-3-3/2-|3(tr4)---------------------|
|                                                            . .
|
|---------------------------|---------------------------|------------|---------------------------|
|---------------------------|---------------------------|------------|---------------------------|
|---------------------------|---------------------------|------------|---------------------------| GTRII
|---------------------------|---------------------------|------------|---------------------------|
|---------------------------|---------------------------|5/4-4-5-5/4-|-------3(tr6)-2(tr5)-1(tr4)|
|3(tr6)-5(tr8)-6(tr9)-5(tr8)|3(tr6)-2(tr5)-3(tr6)-2(tr5)|3/2-2-3-3/2-|3(tr4)---------------------|
                                                             . .

riff 8b
|------------|----------------|
|------------|----------------|
|------------|----------------| GTRI
|------------|5-----------5---|
|4-----------|3-7---7-4---3-7-|
|2-0000000000|--5---5-2-----5-|
|  ..........
|
|------------|----------------|
|------------|----------------|
|------------|----------------| GTRII
|------------|5-----------5---|
|7-----------|3-7---7-4---3-7-|
|5-5555555555|--5---5-2-----5-|
   ..........

riff 8a                      x2
|---------------------------|
|---------------------------|
|---------------------------| GTRI
|---------------------------|
|---------------------------|
|0(tr3)-2(tr5)-3(tr6)-2(tr5)|
|
|
|---------------------------|
|---------------------------|
|---------------------------| GTRII
|---------------------------|
|---------------------------|
|3(tr6)-5(tr8)-6(tr9)-5(tr8)|


riff 8b
|------------|----------------|
|------------|----------------|
|------------|----------------| GTRI
|------------|5-----------5---|
|4-----------|3-7---7-4---3-7-|
|2-0000000000|--5---5-2-----5-|
|  ..........
|
|------------|----------------|
|------------|----------------|
|------------|----------------| GTRII
|------------|5-----------5---|
|7-----------|3-7---7-4---3-7-|
|5-5555555555|--5---5-2-----5-|
   ..........

riff 8c
|---------------------------|---------------------------|------------|---------------------------|
|---------------------------|---------------------------|------------|---------------------------|
|---------------------------|---------------------------|------------|---------------------------| GTRI
|---------------------------|---------------------------|------------|---------------------------|
|---------------------------|2(tr5)-1(tr4)-2(tr5)-1(tr4)|5/4-4-5-5/4-|-------3(tr6)-2(tr5)-1(tr4)|
|0(tr3)-2(tr5)-3(tr6)-2(tr5)|---------------------------|3/2-2-3-3/2-|3(tr4)---------------------|
|                                                            . .
|
|---------------------------|---------------------------|------------|---------------------------|
|---------------------------|---------------------------|------------|---------------------------|
|---------------------------|---------------------------|------------|---------------------------| GTRII
|---------------------------|---------------------------|------------|---------------------------|
|---------------------------|---------------------------|5/4-4-5-5/4-|-------3(tr6)-2(tr5)-1(tr4)|
|3(tr6)-5(tr8)-6(tr9)-5(tr8)|3(tr6)-2(tr5)-3(tr6)-2(tr5)|3/2-2-3-3/2-|3(tr4)---------------------|
                                                             . .

riff 9                             x4
|----------------|----------------|
|----------------|----------------|
|----------------|----------------| GTRI
|----------------|----------------|
|2---------------|----------------|
|0---------------|5555555555555555|
|                ................
|
|----------------|----------------|
|----------------|----------------|
|----------------|----------------| GTRII
|4444------------|----------------|
|----3333----5555|3333------------|
|--------5555----|----555555555555|
 ................ ................

riff 10 (Not whole)                                                                   x6
|--------------------|--------------------|------------|------------|----------------|
|--------------------|----------------ah--|------------|------------|----------------|
|--------------------|----------------6---|------------|------------|----------------| GTRI
|--------------------|--------------------|------------|------------|12p10-10---12---|
|2---3---2---5p3-3---|2---3---2---3h5-----|2---3---2---|3h5---5h7---|-----------13---|
|0---1---0-----------|0---1---0-----------|0---1---0---|------------|-----------0----|
|.   .   .            .   .   .           .   .   .
|                                                       ______________don't know
|--------------------|--------------------|------------|------------|-----------|
|--------------------|---------------a.h--|------------|------------|-----------|
|--------------------|----------------6---|------------|------------|-----------| GTRII
|--------------------|------------4h5-----|------------|------------|-----------|
|2---3---2---?????---|2---3---2-----------|2---3---2---|------------|-----------|
|0---1---0-----------|0---1---0-----------|0---1---0---|------------|-----------|
 .   .   .           .   .   .             .   .   .

riff 3
|----------------|
|----------------|
|----------------| GTRI+GTRII
|----------------|
|4---4---4---4---|
|2---2---2---2---|
 .   .   .   .

riff 4          x2                 1,3_____________ 2,4_____________
|----------------|----------------|----------------|----------------|
|----------------|----------------|----------------|----------------|
|----------------|----------------|----------------|----------------| GTRI
|--------1111----|2222----5555----|1111444444444444|----222222222222|
|----2222----2222|----3333----3333|----------------|1111------------|
|2222------------|----------------|----------------|----------------|
|................ ................ ................ ................
|                                  1,2_____________ 3,4_____________
|----------------|----------------|----------------|----------------|
|----------------|----------------|----------------|----------------|
|----------------|----------------|----------------|----------------| GTRII
|6666----5555----|----------------|----------------|----------------|
|----7777----6666|4444----7777----|3333666666666666|----444444444444|
|----------------|----5555----5555|----------------|3333------------|
 ................ ................ ................ ................

riff 6                                                                x2
|----------------|----------------|----------------|-------------------|
|----------------|----------------|----------------|-------------------|
|----------------|----------------|----------------|-------------------| GTRI
|----------------|----------------|----4/3---------|-------------------|
|----------------|5555555555555555|5\6-2/1---4\5---|5\6-4\5-5\6-7\8-9/8|
|2222222222222222|----------------|3\4-----0-2\3-0-|3\4-2\3-3\4-5\6-7/6|
|................ ................         .     .
|
|----------------|----------------|----------------|-------------------|
|----------------|----------------|----------------|-------------------|
|----------------|----------------|----------------|-------------------| GTRII
|----------------|----------------|----4/3---------|-------------------|
|----------------|----------------|5\6-2/1---4\5---|5\6-4\5-5\6-7\8-9/8|
|6666666666666666|7777777777777777|3\4-----0-2\3-0-|3\4-2\3-3\4-5\6-7/6|
 ................ ................         .     .

riff 5                                 x4
|------------|----------------|-------|
|------------|----------------|-------|
|------------|----------------|-------| GTRI+GTRII
|4/3---------|----4/3---------|-------|
|2/1---4\5---|5\6-2/1---4\5---|5\6-4\5|
|----0-2\3-0-|3\4-----0-2\3-0-|3\4-2\3|
     .     .          .     .

riff 9                             x2
|----------------|----------------|
|----------------|----------------|
|----------------|----------------| GTRI
|----------------|----------------|
|2---------------|----------------|
|0---------------|5555555555555555|
|                ................
|
|----------------|----------------|
|----------------|----------------|
|----------------|----------------| GTRII
|4444------------|----------------|
|----3333----5555|3333------------|
|--------5555----|----555555555555|
 ................ ................

riff 1                             x4
|----------------|----------------|
|----------------|----------------|
|----------ah----|----------------| GTRI
|----------4-ah--|----------------|
|4---2-------3---|----------------|
|--5-----3-------|0000000000000000|
|. .              ................
|
|----------------|----------------|
|----------------|----------------|
|----------------|----------------| GTRII
|----1-----------|----555522222222|
|4---2-----------|3333------------|
|--5-------------|----------------|
 . .              ................

riff 3
|----------------|
|----------------|
|----------------| GTRI+GTRII
|----------------|
|4---4---4---4---|
|2---2---2---2---|
 .   .   .   .

riff 10
|------------|----------------|-------------------|
|------------|----------------|-------------------| GTRI
|----55552222|7777444499997777|10101010999910-9-8-|
|3333--------|----------------|-------------------|
|------------|----------------|-------------------|
|............ ................ . . . . ....
|
|------------|----------------|----------------|
|------------|----------------|----------------|
|------------|----------------|----------------| GTRII
|------------|----------------|55554444--------|
|7777--------|4444----44447777|--------5-4-6---|
|----55552222|----5555--------|----------------|
 ............ ................ ........
comments
We did not receive enough feedback on this tab! Please rate:
print report bad tab
1 2 3 4 5
I want to post or [tab]
guest
You may want to rate the tab now too:
select rating
Please do not post tabs as comments. Select "correction" instead!