Oops, an error
Loading. Please wait.

Purification By Fire Tab

754 views 1 this week
no commentswrite comment
1 2 3 4 5
please rate
Autoscroll
+/-
esc
set tempo
stop
Difficulty
Tuning
advanced
A# F A# D# G C
Hey! There's an official Ultimate Guitar app which is ideal
for learning songs when you're away from computer. Get the app
WARNING: You are trying to view
                                    content from Ultimate-Guitar.com
                                    in an unauthorized application,
                                    which is prohibited.

                                    Please use an official Ultimate
                                    Guitar Tabs application for iPhone,
                                    iPad or Android to access legitimate
                                    chords, guitar, bass, and drum tabs
                                    from Ultimate-Guitar.com database.

                                    Type "ultimate guitar tabs" in Apple
                                    App Store's or Android Market's
                                    search to find the application.
Purification By Fire - Cannibal Corpse
album: kill
tabber: ben chaffins

--------------------------------------------------------------------------------


Tunning A#

Intro
Riff1
|----------------------------------------------------------------------|
|-GuitarA--------------------------------------------------------------|
|----------------------------------------------------------------------|
|----------5---------5--------5-----------------------5--------5-------|
|----------4---------4--------4-----------------------4--------4-------|
|-0366-----3--6333---3--6333--3---------------0366----3--6333--3--6333-|
  ....        ....      ....                  ....       ....     ....

|----------------------------------------------------------------------|
|-GuitarB--------------------------------------------------------------|
|---------666-------666------666----77777------------666------666------|
|----------------------------------------------------------------------|
|----------------------------------------------------------------------|
|-0366--------6333------6333------------------0366-------6333-----6333-|
  ....        ....      ....                  ....       ....     ....

Both Guitars
------------------|
------------------|
------------------|
------------------|
------------------|
-9"-6"-8"-5"-6"-3-|
                .
Riff2
|-------------------------------------------------------------------------------|
|-------------------------------------------------------------------------------|
|-------------------------------------------------------------------------------|
|------111111-----111111------111111---1212121212-------111111------111111------|
|-------------------------------------------------------------------------------|
|-10-7--------7-9--------10-7--------9-------------10-7---------7-9--------10-7-|
  .  .        . .         . .        .              . .         . .         . .


Both Guitars
------------------|
------------------|
------------------|
------------------|
------------------|
-9"-6"-8"-5"-6"-3-|
                .

Riff3 (Solo Rhythm)
|------------------------------------------------------------------------|
|------------------------------------------------------------------------|
|----9h6-9h6\5---------10h7-10h7\6-------9h6-9h6\5---------10h7-10h7\6---|
|--------------8-----------------------------------7---------------------|
|-4"-------------7-------------------4"--------------6-------------------|
|------------------6"--------------0-------------------6"--------------0-|
               . .                 .               . .                 .


Riff2
|-------------------------------------------------------------------------------|
|-------------------------------------------------------------------------------|
|-------------------------------------------------------------------------------|
|------111111-----111111------111111---1212121212-------111111------111111------|
|-------------------------------------------------------------------------------|
|-10-7--------7-9--------10-7--------9-------------10-7---------7-9--------10-7-|
  .  .        . .         . .        .              . .         . .         . .



Both Guitars
------------------|
------------------|
------------------|
------------------|
------------------|
-9"-6"-8"-5"-6"-3-|
                .

Riff3 (Solo Rhythm)
|------------------------------------------------------------------------|
|------------------------------------------------------------------------|
|----9h6-9h6\5---------10h7-10h7\6-------9h6-9h6\5---------10h7-10h7\6---|
|--------------8-----------------------------------7---------------------|
|-4"-------------7-------------------4"--------------6-------------------|
|------------------6"--------------0-------------------6"--------------0-|
               . .                 .               . .                 .


Riff2
|-------------------------------------------------------------------------------|
|-------------------------------------------------------------------------------|
|-------------------------------------------------------------------------------|
|------111111-----111111------111111---1212121212-------111111------111111------|
|-------------------------------------------------------------------------------|
|-10-7--------7-9--------10-7--------9-------------10-7---------7-9--------10-7-|
  .  .        . .         . .        .              . .         . .         . .



Both Guitars
------------------|
------------------|
------------------|
------------------|
------------------|
-9"-6"-8"-5"-6"-3-|
                .


Riff4
|-------------------------------|
|-------------------------------|
|-------------------------------|
|-------------------------66666-|
|-----------------5-4-2---------|
|-34444-3h4p3-111-------1-------|
  .....       ... . . . .

Riff5
|-----------------------------------------|
|-----------------------------------------|
|-------------------------------10-10-----|
|-----------------------9-9-----------8-8-|
|---------------8-8---------8-8-----------|
|-3h4-00-4h1-00-----7-7-------------------|
      ..     .. . . . . . . . .  .  . . .

Riff6
|--------------------------------------------|
|--------------------------------------------|
|------3333----------------------------------|
|----------------55555-----------------------|
|--------------------------------------------|
|-0366------0366-------0366-222\1111-1-11111-|
  ....      ....       .... ... .... . .....

Riff4
|-------------------------------|
|-------------------------------|
|-------------------------------|
|-------------------------66666-|
|-----------------5-4-2---------|
|-34444-3h4p3-111-------1-------|
  .....       ... . . . .

Riff5
|-----------------------------------------|
|-----------------------------------------|
|-------------------------------10-10-----|
|-----------------------9-9-----------8-8-|
|---------------8-8---------8-8-----------|
|-3h4-00-4h1-00-----7-7-------------------|
      ..     .. . . . . . . . .  .  . . .


Riff6
|--------------------------------------------|
|--------------------------------------------|
|------3333----------------------------------|
|----------------55555-----------------------|
|--------------------------------------------|
|-0366------0366-------0366-222\1111-1-11111-|
  ....      ....       .... ... .... . .....


Riff7 (NOTE: THE 1'S ARE 11, NOT 1)
|------------------------------------------------------------|
|------------------------------------------------------------|
|------------------------------------------------------------|
|-----1110--------109-98--109-------1110-------109-98--109---|
|---------9111111----8--10--------------9111111---8--10------|
|-000------------------------11-000-----------------------11-|
  ...  . .. . . .  ..... . .. . ...  . .. . . . ..... . .. .

|-----------------------------------------------------------------------|
|-----------------------------------------------------------------------|
|-------------------------------------------------------------------444-|
|---------------------------653------------------------------653--------|
|-------5-4-2---------5-4-2----653-------5-4-2---------5-4-2----653-----|
|-4-3-1-------3h4-2h3--------------4-3-1-------3h4-2h3------------------|


----------------------------------------------------------------------|
----------------------------------------------------------------------|
----------------------------------------------------------------------|
-------------------------------------653------------------------------|
-------------5-4-2-------------5-4-2----653-------5-4-2---------5-4-2-|
-4-3-1-8-7-4-------4-3-1-8-7-4--------------4-3-1-------3-4-2-3-------|


--------------|
--------------|
--------------|
-653---986----|
----653---986-|
--------------|


Riff8 (This is played ridiculously fast)
|-----------------------------------------------------------------|
|---------------------------2-times-------------------------------|
|---------------------------------------------------------4-3-----|
|---------------------6-5-------------------------6-5---------4-3-|
|-3-2-5-2---------5-2-----6-5-3-2-5-2-----2-1-5-2-----6-5---------|
|---------3-4-2-3---------------------4-3-------------------------|


Riff6
|--------------------------------------------|
|--------------------------------------------|
|------3333----------------------------------|
|----------------55555-----------------------|
|--------------------------------------------|
|-0366------0366-------0366-222\1111-1-11111-|
  ....      ....       .... ... .... . .....


Riff4
|-------------------------------|
|-------------------------------|
|-------------------------------|
|-------------------------66666-|
|-----------------5-4-2---------|
|-34444-3h4p3-111-------1-------|
  .....       ... . . . .


Riff5
|-----------------------------------------|
|-----------------------------------------|
|-------------------------------10-10-----|
|-----------------------9-9-----------8-8-|
|---------------8-8---------8-8-----------|
|-3h4-00-4h1-00-----7-7-------------------|
      ..     .. . . . . . . . .  .  . . .


Riff4
|-------------------------------|
|-------------------------------|
|-------------------------------|
|-------------------------66666-|
|-----------------5-4-2---------|
|-34444-3h4p3-111-------1-------|
  .....       ... . . . .


Riff5
|-----------------------------------------|
|-----------------------------------------|
|-------------------------------10-10-----|
|-----------------------9-9-----------8-8-|
|---------------8-8---------8-8-----------|
|-3h4-00-4h1-00-----7-7-------------------|
      ..     .. . . . . . . . .  .  . . .


Riff6
|-----------------9-time---------------------|
|--------------------------------------------|
|------3333----------------------------------|
|----------------55555-----------------------|
|--------------------------------------------|
|-0366------0366-------0366-222\1111-1-11111-|
  ....      ....       .... ... .... . .....


Riff1
|----------------------------------------------------------------------|
|-GuitarA--------------------------------------------------------------|
|----------------------------------------------------------------------|
|----------5---------5--------5-----------------------5--------5-------|
|----------4---------4--------4-----------------------4--------4-------|
|-0366-----3--6333---3--6333--3---------------0366----3--6333--3--6333-|
  ....        ....      ....                  ....       ....     ....

|----------------------------------------------------------------------|
|-GuitarB--------------------------------------------------------------|
|---------666-------666------666----77777------------666------666------|
|----------------------------------------------------------------------|
|----------------------------------------------------------------------|
|-0366--------6333------6333------------------0366-------6333-----6333-|
  ....        ....      ....                  ....       ....     ....

Both Guitars
------------------|
------------------|
------------------|
------------------|
------------------|
-9"-6"-8"-5"-6"-3-|
                .

|-------------|
|-GuitarA-----|
|-------------|
|----------5--|
|----------4--|
|-0366-----3--|
  ....

|-------------|
|-GuitarB-----|
|---------666-|
|-------------|
|-------------|
|-0366--------|
  ....

END
comments
We did not receive enough feedback on this tab! Please rate:
print report bad tab
1 2 3 4 5
I want to post or [tab]
guest
You may want to rate the tab now too:
select rating
Please do not post tabs as comments. Select "correction" instead!