Oops, an error
Loading. Please wait.

Relentless Beating Tab

754 views 3 this week
no commentswrite comment
1 2 3 4 5
excellent!
x 1
Autoscroll
+/-
esc
set tempo
stop
Contributor
Difficulty
advanced
WARNING: You are trying to view
                                    content from Ultimate-Guitar.com
                                    in an unauthorized application,
                                    which is prohibited.

                                    Please use an official Ultimate
                                    Guitar Tabs application for iPhone,
                                    iPad or Android to access legitimate
                                    chords, guitar, bass, and drum tabs
                                    from Ultimate-Guitar.com database.

                                    Type "ultimate guitar tabs" in Apple
                                    App Store's or Android Market's
                                    search to find the application.
.  - palm mute           /  - slide up to
  - slide down to       ~  - vibrato
h  - hammer on           b  - Bend
p  - pull off            Suffixes for bend
t  - tap                 f  - full bend    h - half bend
ph - pinched harmonic    q  - quarter bend t - tap bend
*  - see comment         ^  - Hold bend    r release bend
x  - Stuccatto           ~  - vibrato bend
,  - slight palm mute    () - ghost note, sustained note
"  - tremolo note        <> - Trill

Tuning 6 half steps down: Bb-Eb-Ab-Db-F-Bb

guitar one =  left channel
guitar two = right channel

both guitars 4 times
|-riff-A----------------------------|
|-----------------------------------|
|-----------------------------------|
|-53-------5/6-------5-5-5-5-5-5----|
|-31-00000-3/4-00000-5-5-5-5-5-5----|
|---------------------3-3-3-3-3-3---|
      .....     ..... . . . . . .

both guitars 2 times
|-riff-B--------------------------|
|---------------------------------|
|---------------------------------|
|-----6-4-------------6-4-----3-5-|
|-4-4-----3-0-4-4-0-4-------2-----|
|-------------------------4-------|
  . . . . . . . . . . . . . . . .

guitar one           1 time
|-riff-C--------------------------------------------|
|---------------------------------------------------|
|---------------------------------------------------|
|--------------------6--9---------------------6--9--|
|------------/10-----4--7--5--5-5-5-5-/13-----4--7--|
|-6--6-6-6-6----------------------------------------|
  .  . . . .               .  . . . .
 --------------------------------------------------|
 --------------------------------------------------|
 --------------------------------------------------|
 --------------------6--9--------------------7-10--|
 -5--5-5-5-5-/13-----4--7--5--5-5-5-5-/8-----5--8--|
 --------------------------------------------------|
  .  . . . .               .  . . . .

guitar two           1 time
|-riff-C--------------------------------------------|
|---------------------------------------------------|
|---------------------------------------------------|
|-------------12-----6--9--------------12-----6--9--|
|-------------10-----4--7--------------10-----4--7--|
|-6--6-6-6-6---------------6--6-6-6-6---------------|
  .  . . . .               .  . . . .

 ---------------------------------------------------|
 ---------------------------------------------------|
 ---------------------------------------------------|
 -------------12-----6--9--------------10-----7-10--|
 -------------10-----4--7---------------8-----5--8--|
 -6--6-6-6-6---------------6--6-6-6-6---------------|
  .  . . . .               .  . . . .

guitar one 7 times       last time
|-riff-D------------|-------------------|
|-------------------|-------------------|
|-8--8-11-----------|-8--8-11-----7-10--|
|-6--6--9-----------|-6--6--9-----7-10--|
|-6--6--9---5-8-4-7-|-6--6--9--5--5--8--|
|-------------------|-------------------|
            . . . .

guitar two 4 times      next 3 times        & last time
|-riff-D------------|-------------------|-------------------|
|-------------------|-------------------|-------------------|
|-8--8-11-----------|-------------------|----------7--7-10--|
|-6--6--9-----------|-6--6--9-----------|-6--6--9--7--7-10--|
|-----------5-8-4-7-|-4--4--7---5-8-4-7-|-4--4--7--5--5--8--|
|-------------------|-4--4--7-----------|-4--4--7-----------|
            . . . .             . . . .

guitar one 2 times / guitar two 4 times
|-riff-E----------------------------------------------------------------|
|-----------------------------------------------------------------------|
|-----------------------------------------------------------------------|
|-----------------------------------------------------------------------|
|-0000000-8/98/9---0000000-8/98/9---0000000-8/98/9-7/87/8-6/76/7--------|
|-----------------------------------------------------------------------|
  .......           .......           .......

guitar one third & fourth time
|-riff-E---------------------------------------|
|----------------------------------------------|
|----------------------------------------------|
|----------------------------------------------|
|-0000000-12/1312/13---0000000-12/1312/13------|
|----------------------------------------------|
  .......               .......
 -----------------------------------------------|
 -----------------------------------------------|
 -----------------------------------------------|
 -----------------------------------------------|
 -0000000 12/1312/13-11/1211/12-10/1110/11------|
 -----------------------------------------------|
  .......

guitar one first time               & next 3 times
|-riff-A---------------|----------------------------------|
|----------------------|----------------------------------|
|----------------------|----------------------------------|
|-53-------5/6-2------|-53-------5/6--------5-5-5-5-5-----|
|-31-00000-3/4-0------|-31-00000-3/4-00000--5-5-5-5-5-----|
|----------------------|----------------------3-3-3-3-3---|
      .....                  .....     .....  . . . . .
guitar two    4 times
|-riff-A----------------------------|
|-----------------------------------|
|-----------------------------------|
|-53-------5/6-------5-5-5-5-5-5----|
|-31-00000-3/4-00000-5-5-5-5-5-5----|
|---------------------3-3-3-3-3-3---|
      .....     ..... . . . . . .
both guitars      1 time
|-break----------------------------------------|
|----------------------------------------------|
|----------------------------------------------|
|-----6-4---------6-----------7-10--6--6--9----|
|-4-4-----3-0-3-5---5-11-----5--8--4--4--7-----|
|-----------------------------------4--4--7----|
  . . . . . . . .
both guitars      1 time
|-riff-F--------------------------------|
|---------------------------------------|
|---------------------------------------|
|---------------6/9--10-10--7--4--4--7--|
|---8-5------5--------8--8--5--2--2--5--|
|-0-----4-4-----------------------------|
  . . . .
 ----------------------------------------------|
 ----------------------------------------------|
 ----------------------------------------------|
 ----------------9/12--13--13---5-5-5-5-5-5----|
 ---11-8------8--------11--11---5-5-5-5-5-5----|
 -0------7-7---------------------3-3-3-3-3-3---|
  . .  . .                       . . . . . .
both guitars            1 time
|-riff-G---------------------------------------------------|
|----------------------------------------------------------|
|----------------------------------------------------------|
|----------------------------------------------------------|
|-10h13p10-0000000-12/1312/13-000000000-10h13p10-0000000---|
|----------------------------------------------------------|
           .......             .........          .......
 ---------------------------------------------------------------------|
 ---------------------------------------------------------------------|
 ---------------------------------------------------------------------|
 ---------------------------------------------------------------------|
 -12h15p12-13h16p13-000000000-10h13p10-0000000-12/1312/13-000000000---|
 ---------------------------------------------------------------------|
                    .........          .......             .........
 ---------------------------------------------------------|
 ---------------------------------------------------------|
 ---------------------------------------------------------|
 ------------------7h10p7-8h11p8-9h12p9-10h13p10-11h14p11-|
 -10h13p10-0000000----------------------------------------|
 ---------------------------------------------------------|
           .......


guitar one 2 times / guitar two 4 times
|-riff-E----------------------------------------------------------------|
|-----------------------------------------------------------------------|
|-----------------------------------------------------------------------|
|-----------------------------------------------------------------------|
|-0000000-8/98/9---0000000-8/98/9---0000000-8/98/9-7/87/8-6/76/7--------|
|-----------------------------------------------------------------------|
  .......           .......           .......

guitar one third & fourth time
|-riff-E---------------------------------------|
|----------------------------------------------|
|----------------------------------------------|
|----------------------------------------------|
|-0000000-12/1312/13---0000000-12/1312/13------|
|----------------------------------------------|
  .......               .......
 -----------------------------------------------|
 -----------------------------------------------|
 -----------------------------------------------|
 -----------------------------------------------|
 -0000000 12/1312/13-11/1211/12-10/1110/11------|
 -----------------------------------------------|
  .......

guitar one           1 time
|-riff-C2-------------------------------------------|
|---------------------------------------------------|
|---------------------------------------------------|
|-------------------6--9---------------------6--9---|
|------------/10---4--7--5--5-5-5-5-/13----4--7-----|
|-6--6-6-6-6----------------------------------------|
     . . . .                 . . . .
 ---------------------------------------------------|
 ---------------------------------------------------|
 ---------------------------------------------------|
 -------------------6--9---------------------6--9---|
 -5--5-5-5-5-/13---4--7--5--5-5-5-5-/13----4--7-----|
 ---------------------------------------------------|
     . . . .                 . . . .
 ----------------------------------------------|
 ----------------------------------------------|
 ----------------------------------------------|
 -6--6--9---------8/11--12--12--9--12--12--15--|
 -4--4--7-----10--------10--10--7--10--10--13--|
 ----------9-----------------------------------|

guitar two 3 times              & last time
|-riff-C2-----------------|---------------------------|
|-------------------------|---------------------------|
|-------------------------|---------------------------|
|-------------------6--9--|--------------------6--9---|
|------------/10---4--7--|------------/10----4--7-----|
|-6--6-6-6-6--------------|-6--6-6-6-6----------------|
     . . . .                   . . . .
 ----------------------------------------------|
 ----------------------------------------------|
 ----------------------------------------------|
 -6--6--9---------8/11--12--12--9--12--12--15--|
 -4--4--7-----10--------10--10--7--10--10--13--|
 ----------9-----------------------------------|


both guitars                   1 time
|-riff-H------------------------------------------------------------------|
|-------------------------------------------------------------------------|
|----------10-10--13------------------------------7--7-10-----------------|
|-----------8--8--11------------------------------5--5--8------------6—-6-|
|-0-10-7-0------------12-9-0-11-8-0-10-7-0-9-6-0-----------0-10-7-0--4—-4-|
|-------------------------------------------------------------------------|
  . .  . .            .  . . .  . . .  . . . . .           . .  . .
 -------------------------------------------------------------------------|
 -------------------------------------------------------------------------|
 -------------------------------------------------------------------------|
 -9-------11/14-----------------------------------------------------------|
 -7----10--------15-12-0-14-11-0-13-10-0-12-9-0-11-8-0-10-7-0-9-6-0-8-5-0-|
 ----9--------------------------------------------------------------------|
                 .  .  . .  .  . .  .  . .  . . .  . . .  . . . . . . . .

both guitars            1 time
|-riff-I------------------------------------------------------|
|-------------------------------------------------------------|
|-------------------------------------------------------------|
|-6h7p6h7p6---------7h10p7h10p7-----------9h10p9h10p9---------|
|-----------0000000-------------000000000-------------0000000-|
|-------------------------------------------------------------|
            .......             .........             .......
 --------------------------------------------------------------------------|
 --------------------------------------------------------------------------|
 --------------------------------------------------------------------------|
 -10h13p10h13p10-----------12h13p12h13p12---------13h16p13h16p13-----------|
 ----------------000000000----------------0000000----------------000000000-|
 --------------------------------------------------------------------------|
                 .........                .......                .........
both guitars first 4 times/then only guitar two last 4 times
 ---------------------------|---------------------------|
 ---------------------------|---------------------------|
 ---------------------------|---------------------------|
 -15h16p15-----16h19p16-----|-15h16p15-----16h19p16-----|
 ----------000----------000-|----------000----------000-|
 ---------------------------|---------------------------|
           ...          ...            ...          ...
guitar one fifth and sixth time/& last two times
 ---------------------------|---------------------------|
 ---------------------------|---------------------------|
 -13h14p13-----14h17p14-----|-17h18p17-----18h21p18-----|
 ---------------------------|---------------------------|
 ----------000----------000-|----------000----------000-|
 ---------------------------|---------------------------|
           ...          ...            ...          ...
both guitars 1 time
|-break-------------------|
|-------------------------|
|-12—-12—-12—-12—-12-—12—-|
|-10—-10—-10—-10—-10--10--|
|-10--10--10--10--10--10--|
|-------------------------|
both guitars                   1 time
|-riff-J----------------------------------------------------------------|
|-----------------------------------------------------------------------|
|-----------------------------------------------------------------------|
|-86--------------8/9--------------97--------------9/10-----------------|
|-64-000000000000-6/7-000000000000-75-000000000000-7/-8-000000000000----|
|-----------------------------------------------------------------------|
      ............     ............     ............      ............

 ------------------------------------------------------------------------|
 ------------------------------------------------------------------------|
 ------------------------------------------------------------------------|
 -108-------10/11-------119-------11/12-------1210-------12/13-----------|
 --86-00000—-8/-9-00000—-97-00000—-9/10-00000-10-8-00000-10/11-00000-----|
 ------------------------------------------------------------------------|
       .....       .....      .....       .....       .....       .....
 --------------------------------------------------------------------------|
 --------------------------------------------------------------------------|
 --------------------------------------------------------------------------|
 -1311-------13/14-------1412-------14/15-------1513-------15/16-----------|
 -11-9-00000-11/12-00000-1210-00000-12/13-00000-1311-00000-13/14-00000-----|
 --------------------------------------------------------------------------|
        .....       .....       .....       .....       .....       .....
 ---------------------|
 ---------------------|
 ---------------------|
 -1614-------16/17----|
 -1412-00000-14/15----|
 ---------------------|
        .....
guitar one first time               & next 3 times
|-riff-A---------------|----------------------------------|
|----------------------|----------------------------------|
|----------------------|----------------------------------|
|-53-------5/6-2------|-53-------5/6--------5-5-5-5-5-----|
|-31-00000-3/4-0------|-31-00000-3/4-00000--5-5-5-5-5-----|
|----------------------|----------------------3-3-3-3-3---|
      .....                  .....     .....  . . . . .
guitar two    4 times
|-riff-A----------------------------|
|-----------------------------------|
|-----------------------------------|
|-53-------5/6-------5-5-5-5-5-5----|
|-31-00000-3/4-00000-5-5-5-5-5-5----|
|---------------------3-3-3-3-3-3---|
      .....     ..... . . . . . .

THE END
comments
We did not receive enough feedback on this tab! Please rate:
1 2 3 4 5
I want to post or [tab]
guest
You may want to rate the tab now too:
select rating
Please do not post tabs as comments. Select "correction" instead!