Oops, an error
Loading. Please wait.

Buried Dreams Tab

ver2
ver2

Whole song

More versions @911Tabs.com
264 views 18 this week
no commentswrite comment
1 2 3 4 5
please rate
Autoscroll
+/-
esc
set tempo
stop
Contributor
WARNING: You are trying to view
                                    content from Ultimate-Guitar.com
                                    in an unauthorized application,
                                    which is prohibited.

                                    Please use an official Ultimate
                                    Guitar Tabs application for iPhone,
                                    iPad or Android to access legitimate
                                    chords, guitar, bass, and drum tabs
                                    from Ultimate-Guitar.com database.

                                    Type "ultimate guitar tabs" in Apple
                                    App Store's or Android Market's
                                    search to find the application.
Song: BURIED DREAMS
Band: CARCASS
ALBUM: Heartwork
Copyright Earache Records 1993

Transcribed by: lal@singularitymetaltab.net
Steer solo and tapped intro transcribed by: Ivan Munguia
fetusshreder@msn.com


Tuning (Low to High) - B E A D F# B

Intro
|---------|
|---------|
|-225-6-5-|
|-003-4-3-|
  ... . .

*For the A riffs, the numbers on top indicate which right hand fingers to tap with
(1-index,2-middle,3-ring,4-pinky)

A           1  2  3  2 (1) 2                    1  2  3  2 (1) 3     Guitar 1
|--------------------------------------------------------------15~~---------|
|-----------------17-14p11----------------------------17-14p11--------------|
|--------------16----------12~~~~------------------16-----------------------|
|-----------14----------------------------------14--------------------------|
|-2-----------------------------------------------------------------225-6-5-|
|-0-----------------------------------------------------------------003-4-3-|
|                                                                  Guitar 2 |
|---------------------------------------------------------------------------|
|---------------------------------------------------------------------------|
|-2------------(2)------------(2)------------(2)------------(2)-----225-6-5-|
|-0------------(0)------------(0)------------(0)------------(0)-----003-4-3-|
                                                                    ... . .

Repeat A with A'

A'          1  2  3  2 (1) 2                    1  2  3  2 (1) 2     Guitar 3
|--------------------------------------------------------------18~~---------|
|-----------------20-17p14----------------------------20-17p14--------------|
|--------------19----------15~~~~------------------19-----------------------|
|-----------17----------------------------------17--------------------------|
|-2-----------------------------------------------------------------225-6-5-|
|-0-----------------------------------------------------------------003-4-3-|
                                                                    ... . .

B1 (all guitars)
|-----------------13---12~~~------16---15~~------13---12~~---------|
|------------------------------------------------------------------|
|-2---------------11---10~~~------14---13~~------11---10~~-225-6-5-|
|-0--------------------------------------------------------003-4-3-|
                                                           ... . .

B2                                     
|-----------------13---12~~~------16---15-b(16)-r(15)---13---12~~---------|
|-------------------------------------------------------------------------|
|-2---------------11---10~~~------14---13-b(14)-r(13)---11---10~~-225-6-5-|
|-0---------------------------------------------------------------003-4-3-|
                                                                  ... . .

B1'                                                          Play twice
|-----------------13---12~~~------16---15~~------13---12~~------------|
|---------------------------------------------------------------------|
|-2---------------11---10~~~------14---13~~------11---10~~-225-6-5----|
|-0--------------------------------------------------------003-4-3-00-|
                                                           ... . . ..

C                                                            Play twice
|---------------------------------------------------------------------|
|-------11-------10-----5---8--------------11------10-----6\5---------|
|-2-----9--------8------3---6---6----2-----9-------8------4\3-5/7-8---|
|-0---0----0-000---0-00---------4----0-000---0-000---0-00-----3/5-6---|
      .    . ...   . ..                ...   . ...   . ..

Repeat B1`

B2'                                     
|-----------------13---12~~~------16---15-b(16)-r(15)---13---12~~------------|
|----------------------------------------------------------------------------|
|-2---------------11---10~~~------14---13-b(14)-r(13)---11---10~~-225-6-5----|
|-0---------------------------------------------------------------003-4-3-00-|
                                                                  ... . . ..

Repeat C x 2

D                  [1,3]                                  [2]               [4]
|--------------------------------------------------|-----------------|------------------|
|-------6\5-------------6\5--------------6\5-------|-------6\5-------|------------------|
|-2-----4\3-5/7-8-5-----4\3-5/7-10-8-----4\3-5/7-8-|-7-----4\3-5/7-8-|-7---7---3--2-3---|
|-0---0-----3/5-6-3---0-----3/5-8--6---0-----3/5-6-|-5---0-----3/5-6-|-5---5---1--------|
      .               .                .                 .                 .
 
Repeat C, D (play D' instead of [4])

D'      [4]
|------------------|
|------7-----------|
|-7--7----3--2-3---|
|-5-------1--------|

E1
|-------------------------------------------------------------------|
|-------------Ah--------------Ah--------------Ah---------6-4----7---|
|-------------7~--------------6~--------------5~------/8------5-----|
|-000000000000----000000000000----000000000000----0-----------------|

E2 (slower)
|-------------------------------------------------------------------|
|-------------Ah--------------Ah--------------Ah---------6-4--------|
|-------------7~--------------6~--------------5~------/8------5-----|
|-0-000-000-00----0-000-000-00----0-000-000-00----0-------------5---|
  . ... ... ..      ... ... ..      ... ... ..     

Play F x 2 under Steer's lead

F                 [1,3]                                   [2]               [4]
|-------------------------------------------------|-----------------|-----------------|
|-------------------------------------------------|-----------------|-----------------|
|-4-----4-----4---2-----2-----2---5-----5-----5---|-4-----4-----4---|-5-4-5-7-9-7-5-5-|
|---222---222---2---444---444---4---222---222---2-|---222---222---2-|-3-2-3-5-7-5-3-2-|
    ...   ...   .   ...   ...   .   ...   ...   .     ...   ...   .   pmh............

Lead: Steer
   f
|-17^rp14p10----16p13h14p10/9------------------------------------------|
|------------14----------------12p10-9/\/\/\/\/\-----------------------|
|-------------------------------------------------------13h14p13-13-13-|
|----------------------------------------------------------------------|
|-------------------------------------------------12//16---------------|
|----------------------------------------------------------------------|

|------------------------------------16/19p17p16-16h17p16-17p16p14-----|
|------------------------------13h14-----------------------------------|
|--------13h14p13---7////13--------------------------------------------|
|----------------------------------------------------------------------|
|-12//16---------------------------------------------------------------|
|----------------------------------------------------------------------|

|----------------------------------------------------------------------------|
|-17p15p14-------------------------------------------------------------------|
|------------14p13p11-13p11p9------------------------------------------------|
|-----------------------------14p12p11-12p11p9-------------------------------|
|----------------------------------------------12-11-9\7-11-9-7\5------------|
|----------------------------------------------------------------7-5-3-0-2~~-|
                                               pm.......................

|----------------------------------------14h17/21p17p14----------------------|
|-------------------------------------15----------------17p15p14-------------|
|----------------------------14-16-18---------------------------16p14p13-11~-|
|-------------------14-16-17-------------------------------------------------|
|----------14-16-17----------------------------------------------------------|
|-14-16-17-------------------------------------------------------------------|
  pm.....................................

|-17p16p14-14-19p14-14-17p14-19p14-19p14-14-17p16-14-19p14-14-17p15p14-19p14-|
|----------------------------------------------------------------------------|
|----------------------------------------------------------------------------|
|----------------------------------------------------------------------------|
|----------------------------------------------------------------------------|
|----------------------------------------------------------------------------|

|-17p14---14h17p14---14--------------------------------------------------|
|------------------17--------------f-------------------------------------|
|-----------------------18p16p14-16^r-14h16p14---------------------------|
|----------------------------------------------16--14h16p14--------------|
|-----------------------------------------------------------16-14--------|
|----------------------------------------------------------------17-14~~-|

|---------------------12/14h16h17h19-16h17p16---f---24WB up/~~~~~r/\/\/\/-|
|----------/15p14p12--------------------------17^-------------------------|
|-11h13h14----------14----------------------------------------------------|
|-------------------------------------------------------------------------|
|-------------------------------------------------------------------------|
|-------------------------------------------------------------------------|

Play (G1+G2) x 2 under Amott's lead

G1
|-----3---------------3---------------3---------------3------------|
|-----3---------------3---------------3---------------3------------|
|------------------------------------------------------------------|
|------------------------------------------------------------------|
|---------------2-3-------------3-4-------------4-5----------------|
|-0----------------------------------------------------------------|

G2
|-----3---------------3---------------3---------------3------------|
|-----3---------------3---------------3---------------3------------|
|------------------------------------------------------------------|
|------------------------------------------------------------------|
|-7-------------2-3-------------3-4-------------4-5----------------|
|------------------------------------------------------------------|


Lead: Amott (+wah)                                 f     f
|------------------------------------------12-15-15^---17^---12---------------------|
|-5-----(5)/17-------15-13-12tr13------/15------------------------15-13-12h13p12-13-|
|-----------------------------------------------------------------------------------|
|-----------------------------------------------------------------------------------|
|-----------------------------------------------------------------------------------|
|-----------------------------------------------------------------------------------|

|-----------------------------------------------------------------------------------|
|------------------------------------------------------12------12-14b(15)----12-----|
|-14-^r-12~~~------12----------------------------------12------12-14b(15)----12-----|
|------------12-14----14-14\12~~~---------------------------14----------------------|
|--------------------------------10-12-14-10~~~~~~~---------------------------------|
|--------------------------------------------------0--------------------------------|


|-----------------------------------------------------12-14-15-/19-17-15-------------|
|---------------------------f----------------12-14-15--------------------19-17-15-14-|
|-12-11h12p11-12-11-12-14-14^--rp12-14~~~~~~~----------------------------------------|
|------------------------------------------------------------------------------------|
|------------------------------------------------------------------------------------|
|------------------------------------------------------------------------------------|

                                                f         f   f   f
|-------14-15-17-17-17h19p17---------14-15-17-17^~~~~~~-22^-22^-22^-22p19p17-19---22-19~~~-|
|-15-17----------------------17~~-17-------------------------------------------------------|
|------------------------------------------------------------------------------------------|
|------------------------------------------------------------------------------------------|
|------------------------------------------------------------------------------------------|
|------------------------------------------------------------------------------------------|
                                           pm

Repeat C, A w/A', C, D, E1

Outro
|------------------------------------------------------------------|
|-------------Ah--------------Ah--------------Ah----------6-4----7-|
|-------------7~--------------6~--------------5~------/8-------5-7-|
|-000000000000----000000000000----000000000000----0--------------5-|
|                                                               .  |
|-------------Ah--------------Ah--------------Ah-------------------|
|-------------9~--------------8~--------------7~----------8-6----7-|
|-----------------------------------------------------/10------7-7-|
|-000000000000----000000000000----000000000000----0--------------5-|
                                                                 .

The End!
comments
We did not receive enough feedback on this tab! Please rate:
1 2 3 4 5
I want to post or [tab]
guest
You may want to rate the tab now too:
select rating
Please do not post tabs as comments. Select "correction" instead!