Oops, an error
Loading. Please wait.

Embryonic Necropsy And Devourment Tab

ver1
ver1

Whole song

Interactive

More versions @911Tabs.com
887 views 3 this week
no commentswrite comment
1 2 3 4 5
please rate
Autoscroll
+/-
esc
set tempo
stop
Contributor
Tuning
Tabbers playing skills
B E A D F# B
intermediate ++
NEW! There's an official Ultimate Guitar app which is ideal
for learning songs when you're away from computer. Get the app
WARNING: You are trying to view
                                    content from Ultimate-Guitar.com
                                    in an unauthorized application,
                                    which is prohibited.

                                    Please use an official Ultimate
                                    Guitar Tabs application for iPhone,
                                    iPad or Android to access legitimate
                                    chords, guitar, bass, and drum tabs
                                    from Ultimate-Guitar.com database.

                                    Type "ultimate guitar tabs" in Apple
                                    App Store's or Android Market's
                                    search to find the application.
         EMBRYONIC NECROPSY AND DEVOURMENT
                             As recorded by Carcass
                  (From the 1989 Album SYMPHONIES OF SICKNESS)

Tuning: BEADGF#B

          F#5                  F5                   Bb5                  C5
      2 4 x x x x          1 3 x x x x          x 1 3 x x x          x 3 5 x x x

          G#5                  G5
      4 6 x x x x          3 5 x x x x

                 Intro
  Q=150
                  $
      B5A5F#F5                                                B5A5F#F5
 4/4
  Gtrs I, II
                      PM|   PM--------|   PM----------|   PM|
|-------------||------------------------------|-----------------------|
|-------------||o-----------------------------|-----------------------|
|-------------||------------------------------|-----------------------|
|-----4p2-----||------------------------------|---------------4p2-----|
|-----2p0-4-3-||o-(3)-----3-------------3-----|---------3-----2p0-4-3-|
|---------2-1-||--(1)-1-1-1-1-1-1-1-1-1-1-1-1-|-1-1-1-1-1-1-1-----2-1-|


                          E5                B5A5F#F5
  Gtrs I, II
      PM|   PM--------|           PM|   PM|
|---------------------------|------------------------|
|---------------------------|------------------------|
|---------------------------|------------------------|
|---------------------------|---------------4p2------|
|-(3)-----3-------------3-2-|-(2)-----2-----2p0-4--3-|
|-(1)-1-1-1-1-1-1-1-1-1-1-0-|-(0)-0-0-0-0-0-----2--1-|
|
| Gtr III
|---------------------------|------------------------|
|---------------------------|------------------------|
|---------------------------|---------------------10-|
|---------------------------|------------------------|
|---------------------------|----------------------8-|
|---------------------------|------------------------|


        PM|       PM------------|       PM|
|-------------------------------------------||
|-------------------------------------------||
|-------------------------------------------||
|-------------------------------------------||
|--(3)--------3---------------------3-------||
|--(1)--1-1---1---1-1---1--1--1-1---1---1-1-||
|
|-------------------------------------------||
|-------------------------------------------||
|-(10)-13---(13)-12---(12)---15---(15)-13---||
|-------------------------------------------||
|--(8)-11---(11)-10---(10)---13---(13)-11---||
|-------------------------------------------||


                      B5 A5 F#5F5                                  E5
    PM------|     PM|                     PM|     PM----------|
|---------------------------------|----------------------------------|
|---------------------------------|----------------------------------|
|---------------------------------|----------------------------------|
|----------------------4p=2-------|----------------------------------|
|--------------3-------2p=0--4--3-|--(3)-------3-----------------3-2-|
|---1--1--1-1--1--1-1--------2--1-|--(1)--1-1--1--1-1--1-1--1-1--1-0-|
|
|---------------------------------|----------------------------------|
|---------------------------------|----------------------------------|
|-(13)---17---17-15---13-15-13-10-|-(10)-13---13-12---12---15---10-9-|
|---------------------------------|----------------------------------|
|-(11)---15---15-13---11-13-11--8-|--(8)-11---11-10---10---13----8-7-|
|---------------------------------|----------------------------------|


  1.,D.S.                   2.,D.S.
                         To Coda
                B5A5F#F5    E5
      PM|   PM|
|------------------------||---------||
|-----------------------o||---------||
|------------------------||---------||
|---------------4p2------||---------||
|-(2)-----2-----2p0-4-3-o||--2------||
|-(0)-0-0-0-0-0-----2-1--||--0------||
|
|------------------------||---------||
|-----------------------o||---------||
|-(9)--------------------||-(9)-----||
|------------------------||---------||
|-(7)-------------------o||-(7)-----||
|------------------------||---------||


   Intro Verse
    Q=162
    F5    E5G#5                 E5G5F#5 F5    E5G#5
    Gtrs I, II
    PM--|   PM----------------|         PM--|   PM----|
||------------------|-----------------|-----------------|
||o-----------------|-----------------|-----------------|
||------------------|-----------------|-----------------|
||------------------|-----------------|-----------------|
||o-3-3-3-2-6-6-6-6-|-6-6-6-6-6-2-5s4-|-3-3-3-2-6-6-6-6-|
||--1-1-1-0-4-4-4-4-|-4-4-4-4-4-0-3s2-|-1-1-1-0-4-4-4-4-|


  1.                  2.
                                D.S. al Coda
          C5B5D5C#5   G#5     C5B5D5C#B5A5F#F5
                     6/4
  PM----|             PM----|
|------------------||-------------------------|
|-----------------o||-------------------------|
|------------------||-------------------------|
|---------5-4-7-6--||---------5-4-7-6-4p2-----|
|-6-6-6-6-3-2-5-4-o||-6-6-6-6-3-2-5-4-2p0-4-3-|
|-4-4-4-4----------||-4-4-4-4-------------2-1-|


    &
    F5    E5G#5                 E5G5F#5 F5    E5G#5               C5B5D5C#5
   4/4
    Gtrs I, II
    PM--|   PM----------------|         PM--|   PM--------------|
||------------------|-----------------|-----------------|------------------||
||o-----------------|-----------------|-----------------|-----------------o||
||------------------|-----------------|-----------------|------------------||
||------------------|-----------------|-----------------|---------5-4-7-6--||
||o-3-3-3-2-6-6-6-6-|-6-6-6-6-6-2-5s4-|-3-3-3-2-6-6-6-6-|-6-6-6-6-3-2-5-4-o||
||--1-1-1-0-4-4-4-4-|-4-4-4-4-4-0-3s2-|-1-1-1-0-4-4-4-4-|-4-4-4-4----------||


   Pre-Verse Riff
    E5                C5B5D5C#5 F5 G5 G#5           C5B5D5C#5
                                                              3x
||-----------|----------------|------------|------------------||
||o----------|----------------|------------|-----------------o||
||-----------|----------------|------------|------------------||
||-----------|--------5-4-7-6-|------------|--------5-4-7-6---||
||o-2--------|-(2)----3-2-5-4-|-3--5--6----|-(6)----3-2-5-4--o||
||--0--------|-(0)------------|-1--3--4----|-(4)--------------||


  E5                C5B5D5C#5 F5 G5 G#5           C5B5D5C#5
|----------|----------------|------------|----------------||
|----------|----------------|------------|----------------||
|----------|----------------|------------|----------------||
|-9--------|-(9)----5-4-7-6-|------------|--------5-4-7-6-||
|-7--------|-(7)----3-2-5-4-|-3--5--6----|-(6)----3-2-5-4-||
|-0--------|-(0)------------|-1--3--4----|-(4)------------||


    Faster Q=212
    F#5           F5              F#Bb5   C5G#5
    Gtr II
    |                             | |  |  | |
    /                             / /  /  / /

    Gtr I
      PM--------|   PM--------|               PM--------|
||------------------------------|-------------------------|
||o-----------------------------|-------------------------|
||------------------------------|-------------------------|
||------------------------------|---3-(3)s5---------------|
||o-4-------------3-------------|-4-1-(1)s3-6-------------|
||--2-0-0-0-0-0-0-1-0-0-0-0-0-0-|-2---------4-4-4-4-4-0-0-|


  F#5           F5              F#BbC5Bb5   G#G5G#G5
  |                             | | | |  |  | | | |
  /                             / / / /  /  / / / /

    PM--------|   PM--------|
|-----------------------------|----------------------||
|-----------------------------|---------------------o||
|-----------------------------|----------------------||
|-----------------------------|---3s5----------------||
|-4-------------3-------------|-4-1s3-8-(8)-6-5s6s5-o||
|-2-0-0-0-0-0-0-1-0-0-0-0-0-0-|-2-----6-(6)-4-3s4s3--||


   1st & 2nd Verse
    $$
    F#5           F5
    Gtrs I, II
      PM--------|   PM--------|
||------------------------------|
||o-----------------------------|
||------------------------------|
||------------------------------|
||o-4-------------3-------------|
||--2-0-0-0-0-0-0-1-0-0-0-0-0-0-|


  F#Bb5   C5G#5             F#5           F5
              PM--------|     PM--------|   PM--------|
|-------------------------|-------------------------------|
|-------------------------|-------------------------------|
|-------------------------|-------------------------------|
|---3-(3)s5---------------|-------------------------------|
|-4-1-(1)s3-6-------------|-4-------------3---------------|
|-2---------4-4-4-4-4-0-0-|-2-0-0-0-0-0-0-1-0-0-0-0-0-0---|


  F#BbC5Bb5   G#G5G#G5  F#5           F5              F#Bb5   C5G#5
                          PM--------|   PM--------|               PM--------|
|---------------------|-----------------------------|--------------------------|
|---------------------|-----------------------------|--------------------------|
|---------------------|-----------------------------|--------------------------|
|---3s5---------------|-----------------------------|---3-(3)s5----------------|
|-4-1s3-8-(8)-6-5s6s5-|-4-------------3-------------|-4-1-(1)s3-6--------------|
|-2-----6-(6)-4-3s4s3-|-2-0-0-0-0-0-0-1-0-0-0-0-0-0-|-2---------4-4-4-4-4-0-0--|


                                1.                    2.
  F#5           F5              F5  Bb5   G#G5G#G5    F#BbC5Bb5   G#G5G#G5
    PM--------|   PM--------|
|-----------------------------|--------------------||----------------------||
|-----------------------------|-------------------o||----------------------||
|-----------------------------|--------------------||----------------------||
|-----------------------------|--------------------||---3s5----------------||
|-4-------------3-------------|-3---8-(8)-6-5s6s5-o||-4-1s3-8-(8)-6-5s6s5--||
|-2-0-0-0-0-0-0-1-0-0-0-0-0-0-|-1---6-(6)-4-3s4s3--||-2-----6-(6)-4-3s4s3--||


   Pre-Chorus 1
                    G5G#F5               BbG5G#F5
    PM------------|          PM--------|
||-------------------------|----------------------|
||o------------------------|----------------------|
||-------------------------|----------------------|
||-------------------------|----------------------|
||o-----------------5s6-3--|-------------8-5s6-3--|
||--0-0-0-0-0-0-0-0-3s4-1--|-0-0-0-0-0-0-6-3s4-1--|


                  G5G#F5   C5C#F5 G5G#F5
  PM------------|
|------------------------|----------------||
|------------------------|---------------o||
|------------------------|----------------||
|------------------------|-5s6------------||
|-----------------5s6-3--|-3s4-3--5s6-3--o||
|-0-0-0-0-0-0-0-0-3s4-1--|-----1--3s4-1---||


   Pre-Chorus 2
    N.C.
    PM----|
||----------------------------|
||o---------------------------|
||----------------------------|
||----------6p5---5p4---4p3---|
||o-------------7-----6-----5-|
||--0-0-0-0-------------------|


  G#5               F5  N.C.
                        PM----|
|---------------------|---------------------------|
|---------------------|---------------------------|
|---------------------|---------------------------|
|---------------------|---------6p5---5p4---4p3---|
|-6-6-(6)-6-6-6-(6)-3-|-------------7-----6-----5-|
|-4-4-(4)-4-4-4-(4)-1-|-0-0-0-0-------------------|


  1.                      2.
  G#5     C5F5            G#5      F5
|----------------------||-------------------||
|---------------------o||-------------------||
|----------------------||-------------------||
|---------5------------||-------------------||
|-6-6-(6)-3-3-3-(3)-3-o||-6-6-(6)--3-3-(3)--||
|-4-4-(4)---1-1-(1)-1--||-4-4-(4)--1-1-(1)--||


   Chorus
    E5   B5E5          N.C.            C5          Eb5
||--------------|--------------------|----------------|---------------|
||o-------------|--------------------|----------------|---------------|
||--------------|--------------------|----------------|---------------|
||-------4s9-9--|-(9)--------4-------|-5--(5)-5-5--8--|-(8)--8--8--8--|
||o-2----2s7-7--|-(7)--3h5h7---7-5p3-|-3--(3)-3-3--6--|-(6)--6--6--6--|
||--0-----------|--------------------|----------------|---------------|


                                                      To Dbl. Coda
  E5     Eb E         N.C.            C5        Eb5           G5A5G5
     PM|    ~~~~~~~~~                    PM|
|--------------|--------------------|--------------|-------------------||
|--------------|--------------------|--------------|------------------o||
|--------8--9--|-(9)----------------|--------------|-------------------||
|--------------|------------4-------|-5------5--8--|-(8)--8\-----------||
|-2------6--7--|-(7)--3h5h7---7-5p3-|-3--3-3-3--6--|-(6)--6\--5s7s5---o||
|-0--0-0-------|--------------------|--------------|----------3s5s3----||


   Interlude
    Q=210
    N.C.
       PM----------|
||-------------------|---------------------|
||o------------------|---------------------|
||-----------2-------|---------------------|
||--2--2h3h5---5-3-2-|-----2---------------|
||o------------------|-3s5---5-3-2p0-2p0---|
||-------------------|-------------------3-|


                    1.,2.,3.            4.
  F5      G#5       B5      F5          B5      F5    E5
                                     4x
|-----------------|------------------||--------------------||
|-----------------|-----------------o||--------------------||
|-----------------|------------------||--------------------||
|-----------------|-4-4-4-4----------||-4-4-4-4------------||
|-3-3-3-3-6-6-6-6-|-2-2-2-2-3-3-3-3-o||-2-2-2-2-3-3-3-2----||
|-1-1-1-1-4-4-4-4-|---------1-1-1-1--||---------1-1-1-0----||


    Q=174
        N.C.        F5E5        N.C.        F5E5
                         3x
||-----------------------||---------------------|
||o---------------------o||---------------------|
||-----------------------||---------------------|
||-----------------------||---------------------|
||o-(2)---4-----3p0-3-2-o||-(2)---4-----3p0-3-2-|
||--(0)-2---2s3-----1-0--||-(0)-2---2s3-----1-0-|


      N.C.    BbG#F#E5        N.C.        F5E5
                                               3x
|---------------------||-----------------------||
|---------------------||o---------------------o||
|---------------------||-----------------------||
|---------------------||-----------------------||
|-(2)---4-----8-6-4-2-||o-(2)---4-----3p0-3-2-o||
|-(0)-2---2s3-6-4-2-0-||--(0)-2---2s3-----1-0--||


      N.C.    BbG#F#N.C.
|---------------------|---------------------|---------------------|
|---------------------|---------------------|---------------------|
|---------------------|---------------------|---------------------|
|---------------------|---------------------|---------------------|
|-(2)---4-----8-6-4---|---------2---2-3-5---|---------2---2-5-3---|
|-(0)-2---2s3-6-4-2-2-|-(2)-3h5---5-------2-|-(2)-3h5---5-------2-|


                                          E5
|---------------------|---------------------|
|---------------------|---------------------|
|---------------------|---------------------|
|---------------------|---------------------|
|---------2---2-3-5---|---------2---2-5-3-2-|
|-(2)-3h5---5-------2-|-(2)-3h5---5-------0-|


 Solo: "Parturient
  paste sandwich" Q=174
      N.C.          F5 E5          N.C.                   F5E5
  Gtr III
|-------------------------|-----------------------------------|
|----------------------12-|-11h=12p11----11-----------------7-|
|--------------9-11-12----|-----------12------11--------------|
|------------9------------|----------------------14-(14)\-----|
|--7--9-10----------------|-----------------------------------|
|-------------------------|-----------------------------------|
|
| Gtrs I, II
|-------------------------|-----------------------------------|
|-------------------------|-----------------------------------|
|-------------------------|-----------------------------------|
|-------------------------|-----------------------------------|
|-(2)----4-----3p=0--3--2-|-(2)-----------4-------3p==0---3-2-|
|-(0)-2----2s3-------1--0-|-(0)-----2-------2s=3----------1-0-|


                 N.C.         F5E5          N.C.         Bb5G#5   F#E5
|----------------------------------|---------------------12-(12)\------|
|----------------------------------|-----------9h10h==12------------12-|
|--9--(9)b11r(9)p7-9---7--------12-|--9h=10h12-------------------------|
|------------------------10-9-7----|-----------------------------------|
|----------------------------------|-----------------------------------|
|----------------------------------|-----------------------------------|
|
|----------------------------------|-----------------------------------|
|----------------------------------|-----------------------------------|
|----------------------------------|-----------------------------------|
|----------------------------------|-----------------------------------|
|-(2)--------------4------3p0-3--2-|-(2)-------4----------8---6---4--2-|
|-(0)------------2---2s3------1--0-|-(0)-----2------2s=3--6---4---2--0-|


      N.C.                F5 E5        N.C.             F5 E5
|----------------------------14-|-(14)-15-17---19-17-14-15----|
|-12--13-13p12------15s17-------|--------------------------17-|
|----------------12-------16----|-----------------------------|
|-------------------------------|-----------------------------|
|-------------------------------|-----------------------------|
|-------------------------------|-----------------------------|
|
|-------------------------------|-----------------------------|
|-------------------------------|-----------------------------|
|-------------------------------|-----------------------------|
|-------------------------------|-----------------------------|
|-(2)-----4----------3p=0--3--2-|--(2)-----4-------3p=0--3--2-|
|-(0)--2-------2s=3--------1--0-|--(0)--2----2s=3--------1--0-|


      N.C.             F5 E5             N.C.       Bb5G#F#5
|-----19------17----15-------|----------------------------------|
|-17-----15------13----15-13-|-12h=13p12------------------------|
|----------------------------|-----------12-14---12-------------|
|----------------------------|----------------------14---(14)---|
|----------------------------|--------------------------------9-|
|----------------------------|----------------------------------|
|
|----------------------------|----------------------------------|
|----------------------------|----------------------------------|
|----------------------------|----------------------------------|
|----------------------------|----------------------------------|
|-(2)-----4-------3p=0--3--2-|-(2)-----------4-------8-6---4----|
|-(0)--2----2s=3--------1--0-|-(0)--------2----2s=3--6-4---2--2-|


      N.C.
|-------------------------------------|------------------------------|
|-------------------------------------|------------------------------|
|----------------------------------11-|-(11)-10------10-11---(11)-13-|
|-----11---10h11p10p==9----------9----|-----------12-----------------|
|--9--------------------12-11-12------|------------------------------|
|-------------------------------------|------------------------------|
|
|-------------------------------------|------------------------------|
|-------------------------------------|------------------------------|
|-------------------------------------|------------------------------|
|-------------------------------------|------------------------------|
|-----------2---------------2--3-5----|------------2-----2-5---3-----|
|-(2)--3h5----------5---------------2-|--(2)--3h5-----5------------2-|


                                                     ~~~~~~~~~
|----------------13h14p13----13----|----------------------------------||
|-----12---14-15----------15----15-|-14--12---------------------------||
|-14-------------------------------|----------14-13-11---(11)-(11)\---||
|----------------------------------|----------------------------------||
|----------------------------------|----------------------------------||
|----------------------------------|----------------------------------||
|
|----------------------------------|----------------------------------||
|----------------------------------|----------------------------------||
|----------------------------------|----------------------------------||
|----------------------------------|----------------------------------||
|-----------2-----2--------3--5----|-----------2-----2-5---3----------||
|-(2)--3h5-----5-----------------2-|-(2)--3h5-----5-------------------||


   Bridge
    Q=212
    N.C.
    Gtrs I, II
    PM-------------------------------
||----------------------------------|
||o---------------------------------|
||----------------------------------|
||----------------------------------|
||o---------------------------------|
||--0-0-0-0-0-0-0-0-0-0-0-0-0-0-0-0-|


                  C5B5D5C#5 N.C.
 ---------------|           PM----------------------------|
|-------------------------|---------------------------------|
|-------------------------|---------------------------------|
|-------------------------|---------------------------------|
|-----------------5-4-7-6-|---------------------------------|
|-----------------3-2-5-4-|---------------------------------|
|-0-0-0-0-0-0-0-0---------|-1-1-1-1-3-3-3-3-4-4-4-4-4-4-4-4-|


                            1.
                  C5B5D5C#5 N.C.
  PM------------|           PM----------------------------|
|-------------------------|---------------------------------|
|-------------------------|---------------------------------|
|-------------------------|---------------------------------|
|-----------------5-4-7-6-|---------------------------------|
|-----------------3-2-5-4-|---------------------------------|
|-4-4-4-4-4-4-4-4---------|-0-0-0-0-0-0-0-0-0-0-0-0-0-0-0-0-|


                  C5B5D5C#5 F5 G5 G#5
  PM------------|
|-------------------------|------------|
|-------------------------|------------|
|-------------------------|------------|
|-----------------5-4-7-6-|------------|
|-----------------3-2-5-4-|-3--5--6----|
|-0-0-0-0-0-0-0-0---------|-1--3--4----|


              2.
              E5                                                C5B5D5C#5
|----------||---------------------------------|--------------------------|
|---------o||---------------------------------|--------------------------|
|----------||---------------------------------|--------------------------|
|----------||-9-9-9-9-9-9-9-9-9-9-9-9-9-9-9-9-|-9-9-9-9-9-9-9-9-5-4-7-6--|
|---------o||-7-7-7-7-7-7-7-7-7-7-7-7-7-7-7-7-|-7-7-7-7-7-7-7-7-3-2-5-4--|
|----------||-0-0-0-0-0-0-0-0-0-0-0-0-0-0-0-0-|-0-0-0-0-0-0-0-0----------|


D.S.S. al Dbl. Coda
  F5 G5 G#5
|------------|------||
|------------|------||
|------------|------||
|------------|------||
|-3--5--6----|------||
|-1--3--4----|------||


 Outro Solo: "Pasteurized
  foetus goulash" Q=212
  &&
  E5               B5    E5             N.C.
  Gtrs III, IV
                             ~~~~~~~~~~
|-------------------------------|---------------------------|
|-------------------------------|---------------------------|
|-11h12p11-(11)----11h12p11-----|----------------11h12h14---|
|---------------14----------14--|-(14)--10h13h14------------|
|-------------------------------|---------------------------|
|-------------------------------|---------------------------|
|
| Gtrs I, II
|-------------------------------|---------------------------|
|-------------------------------|---------------------------|
|-------------------------------|---------------------------|
|-------------------4s====9--9--|--(9)------------4---------|
|--2----------------2s====7--7--|--(7)---3h=5h=7-----7--5p3-|
|--0----------------------------|---------------------------|


  C5             Eb5
                  ~~~~~~~~~~
|--------------------|---------------------------------12-|
|-13--12h=13h15--16--|-(16)-13h15-16p15p13----------------|
|--------------------|---------------------15p14p12-------|
|--------------------|------------------------------14----|
|--------------------|------------------------------------|
|--------------------|------------------------------------|
|
|--------------------|------------------------------------|
|--------------------|------------------------------------|
|--------------------|------------------------------------|
|--5--(5)--5--5---8--|--(8)--------8--------8--------8----|
|--3--(3)--3--3---6--|--(6)--------6--------6--------6----|
|--------------------|------------------------------------|


  E5                  Eb             E
|-15p13p12------------15p13p12----------------------|
|----------15p13p==12----------15p13-12h13p12----12-|
|---------------------------------------------15----|
|---------------------------------------------------|
|---------------------------------------------------|
|---------------------------------------------------|
|
|           PM---|                    ~~~~~~~~~~~~~~~
|---------------------------------------------------|
|---------------------------------------------------|
|----------------------8--------------9-------------|
|---------------------------------------------------|
|--2-------------------6--------------7-------------|
|--0--------0----0----------------------------------|


            N.C.                              C5                    Eb5             G5A5G5
                                                                     ~~~~~~~~~~
|-------------------------------------------|---------------------------|--------------------|
|-----------12h13p12------------------------|---------------------------|--------------------|
|-14p=12h14----------14p13p12------------12-|-14h16p14p12---------------|--------------------|
|-----------------------------14p12h14------|-------------14p12h14------|--------------------|
|-------------------------------------------|---------------------------|--------------------|
|-------------------------------------------|-----------------------11--|-(11)---------------|
|
|~~~~~                                                     PM|
|-------------------------------------------|---------------------------|--------------------|
|-------------------------------------------|---------------------------|--------------------|
|-(9)---------------------------------------|---------------------------|--------------------|
|---------------------4---------------------|--5-----------------5---8--|--(8)--8\-----------|
|-(7)--------3h=5h=7-----------7--5p===3----|--3-----------3--3--3---6--|--(6)--6\--5s7s5----|
|-------------------------------------------|---------------------------|-----------3s5s3----|


  E5              B5   E5                      N.C.
   T       T       T         T         T        T       T         T
|-12p7h10-12p7h10-12p7h==10-12p7h10-|-12p=7h10-12p7h10-12p7h==10-12p10p8p7-|
|-----------------------------------|--------------------------------------|
|-----------------------------------|--------------------------------------|
|-----------------------------------|--------------------------------------|
|-----------------------------------|--------------------------------------|
|-----------------------------------|--------------------------------------|
|
|-----------------------------------|--------------------------------------|
|-----------------------------------|--------------------------------------|
|-----------------------------------|--------------------------------------|
|------------------4s==9-----9------|-(9)---------------4------------------|
|--2---------------2s==7-----7------|-(7)-------3h5h=7------7-----5p===3---|
|--0--------------------------------|--------------------------------------|


  C5               Eb5
                         ~~~
|---------------------|---------------|
|-10p8p7-----7--------|---------------|
|---------9----9p7-8--|-(8)-----------|
|---------------------|---------------|
|---------------------|---------------|
|---------------------|---------------|
|
|---------------------|---------------|
|---------------------|---------------|
|---------------------|---------------|
|--5-----(5)-5-5---8--|-(8)--8--8--8--|
|--3-----(3)-3-3---6--|-(6)--6--6--6--|
|---------------------|---------------|


  E5             Eb          E
|-------------------------------------|
|-------------------------------------|
|----------12h14h16p14p12----12h14h15-|
|-14p12h14----------------14----------|
|-------------------------------------|
|-------------------------------------|
|
|           PM|               ~~~~~~~~~
|-------------------------------------|
|-------------------------------------|
|-----------------8-----------9-------|
|-------------------------------------|
|--2--------------6-----------7-------|
|--0--------0--0----------------------|


               N.C.
|-----------------------12h13p==12----12h==13-|
|-12h=13p12----12h13h15------------15---------|
|-----------14--------------------------------|
|---------------------------------------------|
|---------------------------------------------|
|---------------------------------------------|
|
|~~~~~
|---------------------------------------------|
|---------------------------------------------|
|-(9)-----------------------------------------|
|------------------------4--------------------|
|-(7)-----------3h=5h=7-------7-----5p===3----|
|---------------------------------------------|


  C5                       Eb5             G5A5G5   E5
                                   ~~~~
|-15S20p15---------------------|------------------|--------*|
|----------17------------------|------------------|--------*|
|--------------16--------------|------------------|--------*|
|-------------------17---------|------------------|--------*|
|----------------------19--18--|-(18)-------------|-2------*|
|------------------------------|------------------|-0------*|
|
|------------------------------|------------------|--------*|
|------------------------------|------------------|--------*|
|------------------------------|------------------|--------*|
|--5-------(5)----5-----5---8--|--(8)--8\---------|--------*|
|--3-------(3)----3-----3---6--|--(6)--6\--5s7s5--|-2------*|
|------------------------------|-----------3s5s3--|-0------*|
comments
We did not receive enough feedback on this tab! Please rate:
print report bad tab
1 2 3 4 5
I want to post or [tab]
guest
You may want to rate the tab now too:
select rating
Please do not post tabs as comments. Select "correction" instead!