Oops, an error
Loading. Please wait.

Incarnate Solvent Abuse Tab

ver2
ver2

Whole song

More versions @911Tabs.com
207 views 1 this week
no commentswrite comment
1 2 3 4 5
please rate
Autoscroll
+/-
esc
set tempo
stop
Contributor
Hey! There's an official Ultimate Guitar app which is ideal
for learning songs when you're away from computer. Get the app
WARNING: You are trying to view
                                    content from Ultimate-Guitar.com
                                    in an unauthorized application,
                                    which is prohibited.

                                    Please use an official Ultimate
                                    Guitar Tabs application for iPhone,
                                    iPad or Android to access legitimate
                                    chords, guitar, bass, and drum tabs
                                    from Ultimate-Guitar.com database.

                                    Type "ultimate guitar tabs" in Apple
                                    App Store's or Android Market's
                                    search to find the application.
Song: INCARNATE SOLVENT ABUSE
Band: CARCASS
ALBUM: Necroticism: Descanting the Insalubrious


Tuning (Low to High) - B E A D F# B
[Intro 0:00 - 0:18]

A1            (1,3)               (2)        (4)
|------3-------4-----4----4---]--4---3---]----------|
|--5-----5-4------------------]----------]--6---6---|
|2---2-------5-----2----2-----]2---2-----]2---2-----|
|-----------------------------]----------]----------|
 pm  pm........    pm   pm     pm  pm     pm  pm

A2 (harmony w/A1) (1,3)           (2)        (4)        Fill 1 (dive bar)
|-----------------------------]----------]----------|   |-------|
|------6-------7-----7----7---]--7---6---]--4---4---|   |-------|
|--7-----7-6-2----------------]----------]----------|   |-------|
|4---4-------------4----4-----]4---4-----]4---4-----|   |--\----|
|-----------------------------]----------]----------|   |x--\---|
|-----------------------------]----------]----------|   |x---\--|
 pm  pm            pm   pm     pm  pm     pm  pm

B1                                                       Play 4 times
|----------------|----------------|----------------|----------------|
|5-----2-----2---|5-----2-----2---|5-----2-----2---|5-----2-----2---|
|----------------|----------------|----------------|----------------|
|--000---000---0-|--000---000---0-|--333---333---3-|--222---222---2-|
   pm..  ...   .    ...   ...   .    ...   ...   .    ...   ...   .

C                                                        Play 2 times
|----------------|----------------|----------------|----------------|
|----------------|------------3---|----------------|------------3---|
|--5-4---5-4---4-|--5-4---5-4-1---|--5-4---5-4---4-|--5-4---5-4-1-4-|
|0-3-2-0-3-2-0-2-|--3-2-0-3-2-----|0-3-2-0-3-2-0-2-|--3-2-0-3-2---2-|
 pm...........................     pm...........................

Repeat B x 1

|----------------|----------------|----------------|----------------|
|5-----2-----2---|5-----2-----2---|5-----2-----2---|5-----2-----2---|
|----------------|----------------|----------------|----------------|
|--000---000---0-|--000---000---0-|--333---333---3-|--222---222---2-|
|  pm..  ...   .    ...   ...   .    ...   ...   .    ...   ...   . |
|B2                                                        Guitar 2 |
|----------------|----------------|----------------|----------------|
|5-----2-----2---|5-----2-----2---|5---------------|4-------7-------|
|----------------|----------------|5---------------|4-------7-------|
|--000---000---0-|--000---000---0-|3---------------|2-------5-------|
   pm.   ...   .    ...   ...   .                           % (first time only)

Repeat B x 1, B2’ (in B2’ omit last chord harmony)
Repeat C

D
|----------------|----------------|----------------|----------------|
|5---------------|(5)---------8---|4---------------|(4)------4-5----|
|5---------------|(5)---------8---|4---------------|(4)------4-5----|
|3---------------|(3)---------6---|2---------------|(2)------2-3----|


Repeat C

E            (1,3)                                (2)
|--------------------------------|--------------------------------|
|----------------------------2---|----------------------------5---|
|----------------------2-3-5-----|----------------------2-3-5-----|
|0-0-0-0-0-0-0-0-2-3-5-----------|0-0-0-0-0-0-0-0-2-3-5-----------|
 pm..............                 pm..............

              (4)   [Fill 2]
|--------------------------------|
|3-3-2-0-------------3-----------|
|--------3-3-2-0-----3-----------|
|----------------0---1-----------|
 pm..................

F            (1,3)                           (2)
|--------------------------------|--------------------------------|
|----2-----------------------2---|----2-----------------------5---|
|----2-----------------2-3-5-----|----2-----------------2-3-5-----|
|0---0-------0---2-3-5-----------|0---0-------0---2-3-5-----------|
 pm          pm                   pm          pm

               (4)
|--------------------------------|
|3-3-2-0-------------3-----------|
|--------3-3-2-0-----3-----------|
|----------------0---1-----------|
 pm.................

Repeat E, F, then repeat Fill 2

(lead: "Glue stiffing" by W. G. Steer) w/B1, B2, B1, B2’ (both guitars)
|-------------------------------------------------------------------------------|
|------------------------------------------------------------10-12/17-15~~~~~~~-|
|---------------------------------------12121212-9~~---11-12--------------------|
|---------------777799991010101012121212----------------------------------------|
|7777999910101010---------------------------------------------------------------|
|-------------------------------------------------------------------------------|
 pm...........................................         pm.........

|15-17-19--------1915---------------------------15-17/20------------|
|---------17~~-------17----------------------15----------19~~~~~~-\-|
|----------------------141614-------------16------------------------|
|----------------------------14~----16-17---------------------------|
|-------------------------------------------------------------------|
|-------------------------------------------------------------------|

|--19------15----15p12--12---------------------------------------------------|
/17---1715----13------15--15--------15-12------------------------------------|
|-----------------------------12/14-------14-12-14b15-14b15r14~------1415-11-|
|---------------------------------------------------------------12h14--------|
|----------------------------------------------------------------------------|
|----------------------------------------------------------------------------|
                                                                pm...........

|-------------------------------------------------------------------------------|
|---------------12-13-121312----12---12--------------15-------12-13----12-13-15-|
|12----11-12-14--------------14--------14b15~~----12----12-14-------14----------|
|---14--------------------------------------------------------------------------|
|-------------------------------------------------------------------------------|
|-------------------------------------------------------------------------------|
 pm.............             pm........           pm............................

|---------12-14-15-15b17-|15-14-15-141514--14------|17\15--------------------|
|12-13-15----------------|---------------17--17-15-|------17-15-17-15~-----15|
|------------------------|-------------------------|-------------------16~---|
|------------------------|-------------------------|-------------------------|
|------------------------|-------------------------|-------------------------|
|------------------------|-------------------------|-------------------------|

|15b17-------------|b17---b17---b17---b17---|b17---b17---b17----r15----12~~~~--|
|------------------|------------------------|----------------------------------|
|------------------|------------------------|----------------------------------|
|------------------|------------------------|----------------------------------|
|------------------|------------------------|----------------------------------|
|------------------|------------------------|----------------------------------|


Repeat C, D, C, (E + F) x 2, Fill 2 x 2


G1
|----------------|-------------------|-------------------|----------------|
|9-----9-----9---|10-----10-----10---|10-----10-----10---|9-----9-----9---|
|--777---777---7-|---777----777----7-|---666----666----6-|--666---666---6-|
|----------------|-------------------|-------------------|----------------|
   pm.   ...   .     ...    ...    .     ...    ...    .    ...   ...   .

G2
|----------------|----------------|----------------|----------------|
|7-----7-----7---|8-----8-----8---|8-----8-----8---|7-----7-----7---|
|--555---555---5-|--555---555---5-|--444---444---4-|--444---444---4-|
|----------------|----------------|----------------|----------------|
   pm.   ...   .    ...    ...  .    ...   ...   .    ...   ...   .

G3
|----------------|----------------|----------------|----------------|
|9---------------|10--------------|10--------------|9---------------|
|7---------------|7---------------|6---------------|6---------------|
|----------------|----------------|----------------|----------------|

G4
|----------------|----------------|----------------|----------------|
|7---------------|8---------------|8---------------|7---------------|
|5---------------|5---------------|4---------------|4---------------|
|----------------|----------------|----------------|----------------|


(lead: "Viscous residue snorting" by M. Amott) w/G1, G2, G3, G4
|----------------|-------------------|-------------------|----------------|
|5~~~~~----5-7-8-|8b10---8b10---r8-8-|7b8r~~~~~~-----7-8-|7b8r7~~~~--(5)/-|
|----------------|-------------------|-------------------|----------------|
|----------------|-------------------|-------------------|----------------|
|----------------|-------------------|-------------------|----------------|
|----------------|-------------------|-------------------|----------------|

|----------------|-------------------|-------------------|----------------
|15b17-15b17r15~-|12h13p12-12h13p12-11-12p11-------------|----------------
|----------------|-------------------|-------12-11~~~~---|12p11----9~~~~--
|----------------|-------------------|-------------------|------12--------
|----------------|-------------------|-------------------|----------------
|----------------|-------------------|-------------------|----------------
 
----------|19p15----15-19-b20r19-----19-|------19----18----15----|
----17----|------19---------------15----|---15----15----15----15-|
/16----16-|-----------------------------|------------------------|
----------|-----------------------------|------------------------|
----------|-----------------------------|------------------------|
----------|-----------------------------|------------------------|

|19p15----15-19---19-20b22|(22)-r20---191919~\|191919191717171715151515--------|
|------19-----------------|-------------------|------------------------19191919|
|-------------------------|-------------------|--------------------------------|
|-------------------------|-------------------|--------------------------------|
|-------------------------|-------------------|--------------------------------|
|-------------------------|-------------------|--------------------------------|

|--------------------------------|151515151517171717191919192222222222|
|17171717151515151717171719191919|------------------------------------|
|--------------------------------|------------------------------------|
|--------------------------------|------------------------------------|
|--------------------------------|------------------------------------|
|--------------------------------|------------------------------------|

|24~~--2424-24b26r24---2424|24~\-------|
|--------------------------|-----------|
|--------------------------|-----------|
|--------------------------|-----------|
|--------------------------|-----------|
|--------------------------|-----------|


H1    (1,3,5)          (2,6)             (4) Guitar 1
|----------------|----------------|----------------|
|----------------|9-----7-----6---|9-----7---------|
|------9-7---6---|--7-----7-----7-|--7-----7---6tr7|
|----9-----8---7-|----6-----6-----|----6-----6-----|
|--7-------------|----------------|----------------|
|0---------------|----------------|----------------|
|pm................................................|
|                                         Guitar 2 |
|----------------|----------------|----------------|
|2---------------|----------------|----------------|
|2---------------|----------------|----------------|
|0---------------|------------1-1-|------------1-1-|
                              pm.              . .


H2      (7)             (8) Guitar 1
|----------------|----------------|
|----------------|9-----7---------|
|------9-7---6---|--7-----7---6tr7|
|----9-----8---7-|----6-----6-----|
|--7-------------|----------------|
|0---------------|----------------|
|pm...............................|
|                        Guitar 2 |
|3---------------|7---------------|
|3---------------|7---------------|
|1---------------|5---------------|
|----------------|------------1-1-|
                              pm.

Repeat H1 + H2

I1                     Play 4 times
|----------------|----------------|
|3-2-0-------2---|---/10--9-------|
|------3-2-0-2---|---/8---7-------|
|------------0---|------------0-0-|
 pm..........                 . .

Repeat I1 with I2 harmony (guitar 2)

I2 
|----------------|----------------|
|3-2-0-------2---|---/7---6-------|
|------3-2-0-2---|---/8---7-------|
|------------0---|------------0-0-|
 pm..........                 . .

Fill 2
|----------------|
|3-2-0-------2---|
|------3-2-0-2---|
|------------0---|
 pm..........

Repeat A1, then A1 w/A2


The End!
comments
We did not receive enough feedback on this tab! Please rate:
print report bad tab
1 2 3 4 5
I want to post or [tab]
guest
You may want to rate the tab now too:
select rating
Please do not post tabs as comments. Select "correction" instead!