Oops, an error
Loading. Please wait.

Inpropagation Tab

ver1
ver1

Whole song

More versions @911Tabs.com
1,539 views 3 this week
no commentswrite comment
1 2 3 4 5
please rate
Autoscroll
+/-
esc
set tempo
stop
WARNING: You are trying to view
                                    content from Ultimate-Guitar.com
                                    in an unauthorized application,
                                    which is prohibited.

                                    Please use an official Ultimate
                                    Guitar Tabs application for iPhone,
                                    iPad or Android to access legitimate
                                    chords, guitar, bass, and drum tabs
                                    from Ultimate-Guitar.com database.

                                    Type "ultimate guitar tabs" in Apple
                                    App Store's or Android Market's
                                    search to find the application.
                        CARCASS - INPROPAGATION
           From the Album NECROTISM/DESCANTING THE INSALUBRIOUS
                         Copyright 1991 EARACHE
                       Version 2.0 - NOVEMBER 2001

Transcribed by: Peter Wishart
Version 2.0 by: death8699

For Questions, Comments, Newest Version, or Corrections contact
 death8699: at archenemies@aol.com

Check Out Death8699.com, With More Transcriptions On It:
 http://www.death8699.com

.  - palm mute                  /  - slide up to
\  - slide down to              ~  - vibrato
h  - hammer on                  b  - bend
p  - pull off                   Suffixes for bend
ph - pinch harmonic             f - full bend    h - half bend
*  - see comment                r - release      t - tap bend
X  - percussion mute            ~ - vibrato bend
@  - slight palm mute           () - ghost note, sustained note

Tune Gtr to B

~ I N P R O P A G A T I O N ~

Continous Droning tremolo arm bombs   High and low synths arr. for guitar
5tx
|-------------------------------------|-0-1-0-4-0-1-0-4-0-1-0-4-0-1-0-4-|
|0\-----------------------------------|---------------------------------|
|0\\-etc.-----------------------------|---------------------------------|
|0\\----------------------------------|-2-----------------------0-------|
|--\----------------------------------|---------1-------0---------------|
|-------------------------------------|---------------------------------|
(I don't have a tremolo arm so this is
 just a guess :( )


Repeat second bar 4 more times


Riff A               [1]            [2]   (w/heavy p.m.)      [1]
[2]
|--------------------------------[-------|--------------------------------[---|
|--------------------------------[-------|--------------------------------[---|
|--------------------------------[-------|--------------------------------[---|Gtrs
|9\8-----7\6-----5\4-------------[-------|--------------------------------[---|I&II
|7\6-----5\4-----3\2-------------[-----2-|7766----5544----3322------------[-2-|
|----6-7-----4-5-----2-3-1-2-0-1-[-2-3-0-|----6677----4455----223311220011[-0-|
     . .     . .     . . . . . .   . .    ................................


Riff B              [1]           [2]              [3]               [4]
|--------------[------------[-------------[----------------------[--------------|
|--------------[------------[-------------[----------------------[------------9-|
|--------------[------------[---/10-9-(9)-[----------------------[--/10--9---9--|Gtrs
|9------6---5--[---4--------[-------------[-4--------------------[----------9---|I&II
|7----5-4-4-3--[-3-2-2-(2)--[-3-/8--7-(7)-[-2-3-2-2-2-2-2-2-2-2--[-3-/8--7------|
|--00-3---2----[-1---0-(0)--[-1-----------[---1-0-0-0-0-0-0-0-0--[-1------------|
|  ..                                           . . . . . . . .
|
|B.1                               [1,3]    [2,4]
|--------------------------------[--------[--------|
|--------------------------------[--------[--------|
|--------------------------------[--------[--------|Gtrs
|9------6---5-4----9------6---5--[-3-(3)--[-8-(8)--|I&II
|7----5-4-4-3-2-3--7----5-4-4-3--[-1-(1)--[-6-(6)--|
|--00-3---2-----1----00-3---2----[--------[--------|
   ..                ..


Riff C (w/synth+overdubs)
|-------------------------------------------------------------------------|
|-------------------------------------------------------------------------|
|--------------------------------7-(7)--------------------------3---------|Gtrs
|9-(9)-----------6-(6)-----------7-(7)-----------8-----2-(2)----3---------|I&II
|7-(7)-----------6-(6)-----------5-(5)-----------8-----2-(2)----1----4--3-|
|0-(0)-----------4-(4)---------------------------6-----0-(0)---------2--1-|
|
|
|--------7-------------------------------5--------------------------------|
|----7-----8-7-----------------------5-----6-5----------------------------|
|--9---9-------9-----3---4-3-------7---7-------7--------------------------|Gtr
|------------------6---6-----6--------------------------------------------|III
|------------------------------6------------------------------------------|
|-------------------------------------------------------------------------|
|
|
|-------------------------------------------------------------------------|
|-------------------------------------------------------------------------|
|--------------------------------7---------------10-------------3---------|Gtrs
|9---------------6---------------7---------------10----2--------3---------|I&II
|7---------------6---------------5---------------8-----2--------1----4--3-|
|0---------------4-------------------------------------0-------------2--1-|
|
|
|--------7-------------------------------5--------------------------------|
|----7-----8-7-----------------------5-----6-5----------------------------|
|--9---9-------9-----3---4-3-------7---7-------7---1210-1210--------------|Gtr
|------------------6---6-----6--------------------------------------------|III
|------------------------------6------------------------------------------|
|-------------------------------------------------------------------------|


Riff D (both guitars)     2tx D.1 (w/Riff D)                     1tx
|----------------------------|--------------------------------------|
|----------------------------|--------------------------------------|
|----------------------------|--------------------------------------|Gtr
|9--------6---9-------6---10-|-9-----------6----9----------6----10--|III
|7--5--3--4---7--5--6-4-8-8--|7-7--5---3--4-4--7-7--5---6--4--8--8--|
|---3--1---------3--4---6----|----3-3-1-1----------3-3--4-----6-----|
|
|D.2                                        2tx
|----------------------------------------------|
|----------------------------------------------|
|----------------------------------------------|Gtrs
|---------------------------------------6---10-|I&II
|777777------------444444777777-------6-4-8-8--|
|------333333111111------------333333-4---6----|
|....................................
|
|D.3                                       1    2
|----------------------------------------[----[---|
|----------------------------------------[----[---|
|----------------------------------------[----[---|Gtrs
|--------------------6---------------6---[-10-[---|I&II
|77777777-5-33333333-4-77777777-5--6-4-8-[-8--[-3-|
|---------3---------------------3--4---6-[----[-1-|
 ........   ........   ........


Riff E
|---------------------------------------|---------------------------------------|
|---------------------------------------|---------------------------------------|
|---------------------------------------|---------------------------------------|Gtrs
|---------------------------------------|---------------------------------------|I&II
|------------------5----------------4p1-|------------------5----------------4p1-|
|666666666666-0-/6---666666666666-3-----|666666666666-0-/6---666666666666-3-----|
|............        ............        ............        ............
|
|
|--------------------------|
|--------------------------|
|--------------------------|Gtrs
|------------------------2-|I&II
|-----------------8--3-5-2-|
|0000000033333333-6--1-3-0-|
 ................

Fill 1
|---------------------------|
|---------------------------|
|---------------------------|Gtrs
|9\8-----7\6-----5\4--------|I&II
|7\6-----5\4-----3\2------2-|
|----6-7-----4-5-----2-3--0-|
     . .     . .     . .  ^
                         Hold


Riff B 1tx
Riff B.1 1tx
Riff C 1tx


Lead fills (under Riffs B, B.1, & C)
|--------------------------------------------------|
|--------------------------------------------------|
|--------------------------------------------------|
|--12h15p12--12------------------------------------|
|----------14--14-12\11--11------------------------|
|----------------------13--13-12-10-12h13-12\10/12-|
|
|
|--------------------------------------------------------------------|
|--------------------------------------------------------------------|
|--------------------------------------------------------------------|
|--------------------------------------------------------------------|
|-----11h12p11-------12h14h15p14p12----11h12h14p12p11----------------|
|12h13--------12---13----------------12---------------12-13-12-10-12-|
|
|
|------19p16------------------------------------|
|----18-----18-------------18---17h20p17--17~~~-|
|--19---------19p16--16h19--------------19------|
|18----------------18---------------------------|
|-----------------------------------------------|
|-----------------------------------------------|
|
|                            _full_
|--------------------------------------------|------------17'------`----------|
|15-13-12-------------------------12-15-17h20p17~~~-15h17------------17p15h17-|
|--------14-13--------------13-14------------|--------------------------------|
|-------------15-14-12-14-15-----------------|--------------------------------|
|--------------------------------------------|--------------------------------|
|--------------------------------------------|--------------------------------|


Riff F
|---------------------------------------------------------|
|---------------------------------------------------------|
|-9----------------------------7--------------3-----------|Gtrs
|-------------6-------------------------------------------|I&II
|-7----------------------------5--------------1-----------|
|-------------4-------------------------------------------|
|
|
|---------------------------------------------------------|
|---------------------------------------------------------|
|-9----------------------------7---------------10---------|Gtrs
|-------------6-------------------------------------------|I&II
|-7----------------------------5---------------8----------|
|-------------4-------------------------------------------|


Solo 1
|------------------_full----------------------------------|
|---------7h8---10'-------10-8-----------------7-7h8p7-7--|
|-9~~~-------------------------7~~~---777---9---------9---|
|------------(10)-----------------------------------------|
|---------------------------------------------------------|
|---------------------------------------------------------|
|
|                  _full_                               _1/2_
(p.s)
|---------------10'------`----8-7---777-8-10-------7--7'-----`-----|----------|
|---------7h8--------------------------------10-10-------------10--|----------|
|-9~~~-----------------------------------------------------------10\9-----x\--|Gtrs
|------------(10)--------------------------------------------------|2-----x\\-|I&II
|------------------------------------------------------------------|2-----x\\-|
|------------------------------------------------------------------|0-------\-|


Riff D 2tx
Riff D.2 2tx
Riff D.3 1tx
Riff E 1tx


Riff G
|--------------------------------------|------------------------------------|
|--------------------------------------|------------------------------------|
|--------------------------------/10-9-|------------------------------/10-9-|Gtr
|-------2-3--3-----------2-3-----------|-----2-3--3-----------2-3-----------| I
|2*-----0-1--1-5-3-2-----0-1-5-3-/8--7-|-----0-1--1-5-3-2-----0-1-5-3-/8--7-|
|0*-0-0--------3-1-0-0-0-----3-1-------|-0-0--------3-1-0-0-0-----3-1-------|
|   . .        . . . . .                 . .        . . . . .
|
|
|--------------------------------------|------------------------------------|
|--------------------------------------|------------------------------------|
|--------------------------------/10-9-|------------------------------/10-9-|Gtr
|---------3--3-------------3-----------|-------3--3-------------3-----------| II
|-2-------1--1-------------1-5-3-/8--7-|-2-----1--1-------------1-5-3-/8--7-|
|-0--------------------------3-1-------|-0------------------------3-1-------|


**Pickup note.


Riff G 2tx (over Solo 2)


Solo 2
|------------7h12p7--------------------------------------|
|----------8--------8------------------------------------|
|--------9------------5/7~~~----9h10p9--7--6h7p6---------|
|------9------------------------------------------8\7/8--|
|-7-10---------------------------------------------------|
|--------------------------------------------------------|
|
|
|-------------------------------------------767777-121212-10h12h13~~~---|
|------------------------------------878888-----------------------------|
|-----------------------------989999------------------------------------|
|----------------------989999-------------------------------------------|
|--767777--10910101010--------------------------------------------------|
|-----------------------------------------------------------------------|
|
|
|-/22~~~p19-----------------------22~~~(19)----------6/12-15-12-13----------|
|/---------20----------------17/21--------20----------|-----------15-12-13--|
|------------21-17~~~---14h17---------------21/22-----|---------------------|
|-----------------------------------------------------|---------------------|
|-----------------------------------------------------|---------------------|
|-----------------------------------------------------|---------------------|
|
|
|--------------------------------------------------|------|
|-15/18\15-13-12-13-15-13-12--12-------------------|------|
|---------------------------14--14-12-14/16-14-12--|------|
|------------------------------------------------15|14~~~-|
|--------------------------------------------------|------|
|--------------------------------------------------|------|


Riff H
|--------------------------------|--------------------------------------|
|--------------------------------|--------------------------------------|
|--------------------------------|--------------------------------------|Gtrs
|2--6-5---------5\-5\---9/10-7\6-|-/13---12--12-12-12-12-12-12-12-12-12-|I&II
|2--6-5---------5\-5\---7/8--5\4-|-/11-x-10--10-10-10-10-10-10-10-10-10-|
|0--4-3--3-3-3--3\-3\------------|--------------------------------------|
|        . . .                                .  .  .  .  .  .  .  .  .
|
|--------------------------------|--------------------------------------|
|--------------------------------|-----------------*13--12h13p12--------|
|--------------------------------|-----------------*12--12-------12-----|Gtrs
|--------------------------------|---------------------------------12~~-|III&IV
|--------------------------------|--------------------------------------|
|--------------------------------|--------------------------------------|
|
|
|--------------------------------|--------------------------------------|
|--------------------------------|--------------------------------------|
|--------------------------------|--------------------------------------|Gtrs
|2--6-5---------5\-5\---9/10-7\6-|-/13---12--12-12-12-12-12-12-12-12-12-|I&II
|2--6-5---------5\-5\---7/8--5\4-|-/11-x-10--10-10-10-10-10-10-10-10-10-|
|0--4-3--3-3-3--3\-3\------------|--------------------------------------|
|        . . .                                .  .  .  .  .  .  .  .  .
|
|--------------------------------|-------------------------------15~~~--|
|--------------------------------|--------------*13--12h13p12----15~~~--|
|--------------------------------|--------------*12--12-------12--------|Gtrs
|--------------------------------|--------------------------------------|III&IV
|--------------------------------|--------------------------------------|
|--------------------------------|--------------------------------------|


**2 guitars playing separage notes.


Riff I                                               [1]      [2]
|-----------------------------------------------[----------[--------|
|-----------------------------------------------[----------[--------|
|-----------------------------------------------[----------[--------|Gtrs
|--------6------------6------------6------------[--6-------[------3-|I&II
|--------4-6----------4-5----------4-6----------[--4---5---[--------|
|14310431--4-14314310---3-14314310---4-14314310-[-0--0-3---[-0-3-4--|
 ........    ........     ........     ........   .


Riff J
|-----------------------------------|-----------------------------------|
|-----------------------------------|-----------------------------------|
|-----------------------------------|-----------------------------------|Gtrs
|---------3-2-------------3-2-------|---------3-2-------------3-2-------|I&II
|-----5-4---------------------4-5---|-----5-4---------------------4-5---|
|-0-6---------3-4---0-3-4---------6-|-0-6---------3-4---0-3-4---------6-|
|J.1
|-----------------------------------|-----------------------------------|
|-----------------------------------|-----------------------------------|
|---------5-4-------------5-4-------|---------5-4-------------5-4-------|Gtrs
|-----7-6-3-2-------------3-2-6-7---|-----7-6-3-2-------------3-2-6-7---|I&II
|-2-8-5-4-----5-6---2-5-6-----4-5-8-|-2-8-5-4-----5-6---2-5-6-----4-5-8-|
|-0-6---------3-4---0-3-4---------6-|-0-6---------3-4---0-3-4---------6-|


Riff H 1tx
Riff I 1tx
Riff J 1tx
Riff J.1 1tx


Riff J.2
|-----------------------------------|-----------------------------------|
|-----------------------------------|-----------------------------------|
|-----------------------------------|-----------------------------------|Gtrs
|-----------3"2"----------3"2"------|-----------3"2"----------3"2"------|I&II
|------5"4"-------------------4"5---|------5"4"-------------------4"5---|
|-0"6"----------3"4"0"3"4"-------6"-|-0"6"----------3"4"0"3"4"-------6"-|


Riff K (w/heavy p.m.)
|------------------------------------|----------------------------------|
|------------------------------------|----------------------------------|
|------------------------------------|----------------------------------|Gtrs
|------------------------------------|----------------------------------|I&II
|6-6-6-6-4-4-4-444-5-5-5-5-3-3-3-333-|6-6-6-6-4-4-4-444-5-5-5-5-3-3-3-6-|
|4-4-4-4-2-2-2-222-3-3-3-3-1-1-1-111-|4-4-4-4-2-2-2-222-3-3-3-3-1-1-1-4-|
 . . . . . . . ... . . . . . . . ...  . . . . . . . ... . . . . . . .


Riff J.2 1tx


Riff J.3
|---------------------------------------|---------------------------------------|
|---------------------------------------|---------------------------------------|
|----------5"4"------------5"4"---------|-----------5"4"-----------5"4"---------|Gtrs
|------7"6-3"2"------------3"2"-6"7"----|------7"6"-3"2"-----------3"2"-6"7"----|I&II
|-2"8"-5"4-----5"6"-2"5"6"------4"5"-8"-|-2"8"-5"4"-----5"6"-2"5"6------4"5"-8"-|
|-0"6"---------3"4"-0"3"4"-----------6"-|-0"6"----------3"4"-0"3"4-----------6"-|


Riff K 1.5tx


Fill 2              Riff L                                         [1,3]
|---------------|---|------------------------------------------|------------|
|---------------|---|------------------------------------------|------------|
|---------------|---|------------------------------------------|------------|Gtrs
|---------------|---|--------------3/4-4/5-5/6-----------------|7\6-6\5-5\4-|I&II
|-444/5--5--3-3-|-2-|------3\2-----1/2-2/3-3/4-5-------6\5-----|5\4-4\3-3\2-|
|-222/3--3--1-1-|-0-|0-0-0-1p0-0-0----0---0----3-3-3-3-4\3-3-3-|---0---0----|
|                    . . .     . .    .   .      . . .     . .     .   .
|
|                                 [2]                    [4]
|--------------------------|----------------|---------------------------|
|--------------------------|----------------|---------------------------|
|--------------------------|----------------|---------------------------|
|--------------3/4-4/5-5/6-|--------3-2-----|---------------7\6-6\5-5\4-|
|------3\2-----1/2-2/3-3/4-|----5-4---------|-5-------6\5---5\4-4\3-3\2-|
|0-0-0-1p0-0-0----0---0----|0-6---------3-4-|-3-3-3-3-4\3---------------|
 . . .     . .    .   .                         . . .


Outro
|------------------------------------|-----------------------------------|
|------------------------------------|-----------------------------------|
|------------------------------------|-----------------------------------|Gtrs
|2-------------7\6-6\5---------------|9-------7---6------9\8----7\6----2-|I&II
|2-------------5\4-4\3---2-3-----4-5-|7-----6-5-5-4------7\6----5\4----2-|
|0----------00----0------0-1-----2-3-|---00-4---3------------75-----35-0-|
|           ..    .                      ..                  ..     ..
|
|-----------------------------------|
|-----------------------------------|
|-----------------------------------|Gtrs
|-2---------2---------2---------2---|I&II
|-2---------2---------2---------2---|
|-0---------0---------0---------0---|


Check Out Death8699.com, With More Transcriptions On It:
 http://www.death8699.com
comments
We did not receive enough feedback on this tab! Please rate:
print report bad tab
1 2 3 4 5
I want to post or [tab]
guest
You may want to rate the tab now too:
select rating
Please do not post tabs as comments. Select "correction" instead!