Oops, an error
Loading. Please wait.

Inpropagation Tab

ver2
ver2

Whole song

Interactive

More versions @911Tabs.com
216 views 6 this week
no commentswrite comment
1 2 3 4 5
please rate
Autoscroll
+/-
esc
set tempo
stop
Contributor
Hey! There's an official Ultimate Guitar app which is ideal
for learning songs when you're away from computer. Get the app
WARNING: You are trying to view
                                    content from Ultimate-Guitar.com
                                    in an unauthorized application,
                                    which is prohibited.

                                    Please use an official Ultimate
                                    Guitar Tabs application for iPhone,
                                    iPad or Android to access legitimate
                                    chords, guitar, bass, and drum tabs
                                    from Ultimate-Guitar.com database.

                                    Type "ultimate guitar tabs" in Apple
                                    App Store's or Android Market's
                                    search to find the application.
Song: INPROPAGATION
Band: CARCASS
ALBUM: Necroticism: Descanting the Insalubrious



Tuning (Low - High): B E A D F# B
[Intro 0:00 - 0:47]

(0:47)       (1,3)          (2)    (4)          (5,7)             (6)     (8)
|------------------------[--------[---|------------------------[--------[-----|
|9\8-----7\6-----5\4-----[--------[---|------------------------[--------[-----|
|7\6-----5\4-----3\2-----[2-2-2-2-[2--|7766----5544----3322----[--------[2----|
|----6-7-----4-5-----3-2-[0-0-0-0-[0--|----6677----4455----3322[00000000[0----|
     pm..    pm..    pm...........     pm...............................

(%)            1              2              3                4
|------------[--------------[--------------[----------------[-----9--/10\9---|
|9-----6---5-[--4-----------[-/10-9--------[--4-------------[-/10-9----------|
|7---5-4-4-3-[3-2-2---------[3/8--7--------[3-2-2-2-2-2-2-2-[3/8--7--/8-\7---|
|--003---2---[1---0---------[1-------------[1---0-0-0-0-0-0-[1---------------|
   pm                                           pm..........

                             1,3   2,4
|----------------------------[----[----|
|9-----6---5-----9-----6---5-[3---[8---|
|7---5-4-4-3-3---7---5-4-4-3-[1---[6---|
|--003---2---1-----003---2---[----[----|
   pm              pm

|---------------------------------------------------------------------------------|
|----7-----7------------------------5----5----------------------------------------|
|------9-----9-------3----3-----7-----7----7---5------------------------3---------|
|9-------9-----9-6-----6----6---7-------7----7-8-8-----8-----2----------3---------|
|7---------------6-------6----6-5--------------8---8---------2----------1-----4-3-|
|0---------------4-----------------------------6-----6-------0----------------2-1-|

|---------------------------------------------------------------------------------|
|----7-----7------------------------5----5-------8-----8--------------------------|
|------9-----9-------3----3-----7-----7----7---10--10----10-------------3---------|
|9-------9-----9-6-----6----6---7-------7----7-10----10------2----------3---------|
|7---------------6-------6----6-5--------------8-------------2----------1-----4-3-|
|0---------------4-------------------------------------------0----------------2-1-|

 (#)                       then repeat w/overdub:
|---------------------------------|-9-----------6---9---------------|
|9-----------6---9---------6---10-|-----5---3-----------5----6---10-|
|7---5---3---4---7---5---6-4-8-8--|7-7---------4-4-7-7-----6-4-8-8--|
|----3---1-----------3---4---6----|----3-3-1-1---------3-3-4---6----|

 x2
|------------------------------------------------------------|
|---------------------------------------------------6----10--|
|77777777----------------4444444477777777--------6--4--8--8--|
|--------3333333311111111----------------333333334-----6-----|
 pm..............................................

 x2                                                  1    2
|---------------------------------------------------[----[---|
|-----------------------6---------------------6-----[10--[---|
|77777777-5----33333333-4----77777777-5----6--4--8--[8---[3--|
|---------3---------------------------3----4-----6--[----[1--|
 pm.......     pm.......     pm.......

|-------------------------------------------------------------------------------|
|----------------------------------------------------------------------------3--|
|-------------------------------7777777777774h5------------------------------1--|
|000000000004p3-6666666666667p6-----------------6666666666664p3-000000000000----|
 pm.........    pm..........    pm..........    pm..........    pm..........

                (*)
-------2----------|
-------2----------|
-3--5--2----------|
-1--3--0----------|

over (%) to (#) (lead fills: "Dust in the mausoleum" by W. G. Steer)
|----------------------------|------------------------------------------------|
|9\8-----7\6-----5\4---------|12h15p12--12------------------------------------|
|7\6-----5\4-----3\2-----2---|--------14--14-12\11--11------------------------|
|----6-7-----4-5-----3-2-0---|--------------------13--13-12-10-12h13-12\10/12-|
     pm..    pm..    pm..             pm...................................

|-----------------------------------------------------------------------------|
|-----------------------------------------------------------------------------|
|-----11h12p11-------12h14h15p14p12----11h12h14p12p11-------------------------|
|12h13--------12---13----------------12---------------12-13-12-10-12~---\-----|
 pm...............................................................

|------19p16-------------------------------------|
|----18-----18-------------18---17h20p17--17~----|
|--19---------19p16--16h19--------------19-------|
|18----------------18----------------------------|
|------------------------------------------------|
|------------------------------------------------|

                                                             _full_
|---------------------------------------12h15p12~~~-------17'------`----------|
|15-13-12-------------------------12-15------|------15h17------------17p15h17-|
|--------14-13--------------13-14------------|--------------------------------|
|-------------15-14-12-14-15-----------------|--------------------------------|
|--------------------------------------------|--------------------------------|
|--------------------------------------------|--------------------------------|

The rhythm figure from (%) keeps going for 3 more bars, ending at (#)

(lead: “Compost humous horticulture” by M. Amott)
|-----------------_full----------------------------------|
|--------7h8---10'-------10-8-----------------7-7h8p7-7--|
|9~~~-------------------------7~~~---777---9---------9---|
|------------10------------------------------------------|
|--------------------------------------------------------|
|--------------------------------------------------------|

                  _full_                             _1/2_               (p.s.)
|--------------10'------`---8-7---777-8-10------7--7'-----`-----|--------------|
|--------7h8------------------------------10-10-------------10--|--------x\----|
|9~~~---------------------------------------------------------10\9---------x\--|
|------------10-------------------------------------------------|2-----------x\|
|---------------------------------------------------------------|2-------------|
|---------------------------------------------------------------|0-------------|

Play from (#) to (*) then:
      Riff B                                                        (x2)
~----|--------------------------------|-----------------------/10--9---|
~-2--|--------2---3---------3---------|--------2---3-------------------|
~-2--|2---3---0---1---------1---5-3-2-|2---3---0---1---5---3--/8---7---|
~-0--|0---1---------------------3-1-0-|0---1-----------3---1-----------|
      pm......                  pm.............

(lead: “Humanure” by W. G. Steer) w/ Riff B
|-----------7h12p7--------------------------------------|
|---------8--------8------------------------------------|
|-------9------------5/7~~~----9h10p9--7--6h7p6---------|
|-----9------------------------------------------8\7/8--|
|7-10---------------------------------------------------|
|-------------------------------------------------------|

|-----------------------------------------767777-121212-10h12h13~~~---|
|----------------------------------878888-----------------------------|
|---------------------------989999------------------------------------|
|--------------------989999-------------------------------------------|
|767777--10910101010--------------------------------------------------|
|---------------------------------------------------------------------|
   pm...................................................

|-/22~~~p19-----------------------22---19------------|
|/---------20----------------17/21-------20----------|
|------------21-17~~~---14h17--------------21/22~~---|
|----------------------------------------------------|
|----------------------------------------------------|
|----------------------------------------------------|

/12-15-12-13------------------------------------------------------------|------|
|------------15-12-13-15/18\15-13-12-13-15-13-12--12--------------------|------|
|-----------------------------------------------14--14-12-14/16-14-12---|------|
|---------------------------------------------------------------------15|14~~~-|
|-----------------------------------------------------------------------|------|
|-----------------------------------------------------------------------|------|

(!)
|-----------------------------------------------------------------------|
|-------------------------------------------------13--12h13p12----------|
|-------------------------------------------------12--12-------12-------|
|2--6-5---------5\--/5\-9/10-7\6--/13---12------------------------12~~~-|
|2--6-5---------5\--/5\-7/8--5\4--/11-x-10--10-10-----------------------|
|0--4-3--3-3-3--3\-0/3\-------------------------------------------------|
         pm....   pm                  pm    pm....

|-----------------------------------------------------------------15~~~-|
|-------------------------------------------------13--12h13p12----15~~~-|
|-------------------------------------------------12--12-------12-------|
|2--6-5---------/5\--\--9/10-7\6--/13---12------------------------------|
|2--6-5---------/5\--\--7/8--5\4--/11-x-10--10-10-----------------------|
|0--4-3--3-3-3--/3\--\--------------------------------------------------|
         pm.....                      pm    pm....

                                          1        2
|---------------------------------------------------[--------[--------|
|--------6-------------6-------------6--------------[6-------[------2-|
|--------4--7----------4--5----------4--7-----------[4----5--[----4---|
|31013101---5--31013101---3--31013101---5--31013101-[---0-3--[0-3-----|
 pm......      pm......      pm......      pm.......    pm


(&)           (1,2)                               (3,4)
|----------------------------------|--------5\4-------------5\4-------|
|--------3-2-------------3-2-------|----7\6-3\2-------------3\2-6/7---|
|----5-4---------------------4-5---|--8-5\4-----5/6-----5/6-----4/5-8-|
|0-6---------3-4---0-3-4---------6-|0-6---------3/4---0-3/4---------6-|

Repeat from (!) to here

|--------------------------------|--------------------------------|
|--------------------------------|--------------------------------|
|6-6-6-6-6-4-4-445-5-5-5-5-3-3-33|6-6-6-6-6-4-4-445-5-5-5-5-3-3-3-|
|4-4-4-4-4-2-2-223-3-3-3-3-1-1-11|4-4-4-4-4-2-2-223-3-3-3-3-1-1-1-|
 pm...............................................................

Repeat from (&) to here

|--------------------------------|--------------------------------|
|--------------------------------|--------------------------------|
|6-6-6-6-6-4-4-445-5-5-5-5-3-3-33|6-6-6-6-6-4-4-444/5---5---3---3-|
|4-4-4-4-4-2-2-223-3-3-3-3-1-1-11|4-4-4-4-4-2-2-222/3---3---1---1-|
 pm...............................................

E
|----------------------------------------------------------------|
|----------------4/5---5/6---6/7-----------------7\6---6\5---5\4-|
|2-------3\2-----2/3---3/4---4/5-5-------6\5-----5\4---4\3---3\2-|
|0-0-0-0-1p0-0-0-----0-----0-----3-3-3-3-4\3-3-3-----0-----0-----|
   pm....    pm..    pm    pm      pm....    pm..    pm    pm

|--------------------------------|----------------|
|----------------4/5---5/6---6/7-|--------3-2-----|
|2-------3\2-----2/3---3/4---4/5-|----5-4---------|
|0-0-0-0-1p0-0-0-----0-----0-----|0-6---------3-4-|
   pm....    pm..    pm    pm

Repeat E

|----------------------------------------------------------------|
|----------------4/5---5/6---6/7-----------------7\6---6\5---5\4-|
|2-------3\2-----2/3---3/4---4/5-5-------6\5-----5\4---4\3---3\2-|
|0-0-0-0-1p0-0-0-----0-----0-----3-3-3-3-4\3---------------------|
   pm....    pm..    pm    pm      pm....

Outro
|-------------------------------------------------------------------------------|
|2-----------7\6---6\5---------------9---------7---6-----9\8-----7\6-----2------|
|2-----------5\4---4\3---2-3-----4-5-7-------6-5-5-4-----7\6-----5\4-----2------|
|0-------0-0-----0-------0-1-----2-3-----0-0-4---3-----------7-6-----5-4-0------|
         pm..    pm                      pm..                pm..    pm..

|-------------------------|
|2------2------2------2---|
|2------2------2------2---|
|0------0------0------0---|


The End.
--------------------
erik_heino@hotmail.com
comments
We did not receive enough feedback on this tab! Please rate:
print report bad tab
1 2 3 4 5
I want to post or [tab]
guest
You may want to rate the tab now too:
select rating
Please do not post tabs as comments. Select "correction" instead!