Oops, an error
Loading. Please wait.

This Mortal Coil Tab

ver2
ver2

Whole song

Interactive

More versions @911Tabs.com
986 views 9 this week
no commentswrite comment
1 2 3 4 5
please rate
Autoscroll
+/-
esc
set tempo
stop
Contributor
Tabbers playing skills
advanced +
WARNING: You are trying to view
                                    content from Ultimate-Guitar.com
                                    in an unauthorized application,
                                    which is prohibited.

                                    Please use an official Ultimate
                                    Guitar Tabs application for iPhone,
                                    iPad or Android to access legitimate
                                    chords, guitar, bass, and drum tabs
                                    from Ultimate-Guitar.com database.

                                    Type "ultimate guitar tabs" in Apple
                                    App Store's or Android Market's
                                    search to find the application.
Artist: Carcass
Song: This Mortal Coil
Album: Heartwork
Tuning: B ( B E A D F# B  )
All the riffs can be played on a 7 string and I tabbed out the solos for both 6 and 7 strings.
Tabbed by drawnacrol

You can contact me at:
ttp://www.youtube.com/drawnacrol

Intro:
|---------------------------------------------------------------------------------|
|---------------------------------------------------------------------------------|
|--------5----4----------5----4----2----------5----4----------5----4----2----1----|
|-----7----7----5-----7----7----5----3-----7----7----5-----7----7----5----3----2--|
|--0---------------0--------------------0---------------0-------------------------|
|---------------------------------------------------------------------------------|

|--------------------------------------------------------------------------------|
|--------------------------------------------------------------------------------|
|--------5----4----------5----4----2----------5----4-----3---6---5---------------|
|-----7----7----5-----7----7----5----3-----7----7----5---3---6---5---6-----------|
|--0---------------0--------------------0----------------1---4---3---6-----------|
|--------------------------------------------------------------------4-----------|

Verse Riff 1:
|-----------------------------------------------------------------|
|-----------------------------------------------------------------|
|--2--------------------------------------------------------------|
|--2--------------------------------5---7---5---3------3----------|
|--0--0-0-0---0-0-0---0-0-0---0-0---5---7---5---3----3-3-----0-0--|
|-----------------------------------3---5---3---1----1-1----------|

|---------------------------------------------------------------|
|---------------------------------------------------------------|
|--2------------------------------------------------------------|
|--2--------------------------------7/9---7---5------5----------|
|--0--0-0-0---0-0-0---0-0-0---0-0---7/9---7---5----5-5-----0-0--|
|-----------------------------------5/7---5---3----3-3----------|

Verse Riff 2: Guitars Left + Right
|----------------------------------------------------------------------|
|----------------------------------------------------------------------|
|----------------------------------------------------------------------|
|--7---9-9-9---10-10-10---9-9-9---7------7-----------------------------|
|------------------------------------10-----10--8~~~-------------------|
|----------------------------------------------------------------------|
|                                                                      |
|----------------------------------------------------------------------|
|----------------------------------------------------------------------|
|----------------9-9-9-------------------------------------------------|
|--10---12-12-12-------12-12-12---10--9--10--9-------------------------|
|-----------------------------------------------12~~~------------------|
|----------------------------------------------------------------------|

|----------------------------------------------------------------------|
|----------------------------------------------------------------------|
|-------------------------7-7-7----------------------------------------|
|--7---9-9-9---10-10-10----------10---7--9--7--------------------------|
|------------------------------------------------10~~------------------|
|----------------------------------------------------------------------|
|                                                                      |
|----------------------------------------------------------------------|
|----------------------------------------------------------------------|
|----------------9-9-9--10-10-10--9------------------------------------|
|--10---12-12-12---------------------10--12--10--9~~-------------------|
|----------------------------------------------------------------------|
|----------------------------------------------------------------------|


Chorus:
|--------------------------------------------------|
|--------------------------------------------------|
|--4--------8---7b8r7----4-------5---4---7---8-----|
|--4--------8---7b8r7----4---5---5---4---7---8-----|
|--2--------6---5b6r5----2---5---3---2---5---6-----|
|----------------------------3---------------------|

|--------------------------------------------------|
|--------------------------------------------------|
|--4--------8------------4-------5---4---7---8-----|
|--4--------8------------4---5---5---4---7---8-----|
|--2--------6---5b6r5----2---5---3---2---5---6-----|
|---------------PH-----------3---------------------|

Verse Riff 1 Variation:
|-----------------------------------------------------------------|
|-----------------------------------------------------------------|
|--2--------------------------------------------------------------|
|--2--------------------------------5---7---5---3------3----------|
|--0--0-0-0---0-0-0---0-0-0---0-0---5---7---5---3----3-3-----0-0--|
|-----------------------------------3---5---3---1----1-1----------|

|-----------------------------------------------------------------|
|-----------------------------------------------------------------|
|--2---------------------------------2-----6-----5-----2----------|
|--2---------------------------------2-----6-----5-----2----------|
|--0--0-0-0---0-0-0---0-0-0---0-0----0-----4-----3-----0----------|
|-----------------------------------------------------------------|

Guitar Solo 1: 
|-----------------------------------------------------------8p7--------|
|----------------------------------------------------8--10-------10p8--|
|--2/5~~-----------5--7h9--5h7----------------7--9---------------------|
|----------7p5--7---------------7p5--7~~---9---------------------------|
|----------------------------------------------------------------------|
|----------------------------------------------------------------------|


|----------------------------------------------------------------------|
|----------------------------------------------------------------------|
|--14b16r14--b16r14--12h14p12\11h12p11p10h11p10----10b12---(12)r10~~---|
|----------------------------------------------------------------------|
|----------------------------------------------------------------------|
|----------------------------------------------------------------------|


|--17b19r17------15--17b19r17--15----------17------15------------------|
|------------17--------------------17--15------17------17--------------|
|----------------------------------------------------------------------|
|----------------------------------------------------------------------|
|----------------------------------------------------------------------|
|----------------------------------------------------------------------|

Guitar Solo 2:
|----------14h19p14----------------------------------------------------|
|------15------------15----------14--15--17--17b19r17b19r17~~----------|
|--16--------------------16~~------------------------------------------|
|----------------------------------------------------------------------|
|----------------------------------------------------------------------|
|----------------------------------------------------------------------|

|--14-14-14-19-14-14-14-19-14-14-14-19-14-14-14-19-14-19-19------------|
|----------------------------------------------------------------------|
|----------------------------------------------------------------------|
|----------------------------------------------------------------------|
|----------------------------------------------------------------------|
|----------------------------------------------------------------------|

|--19b21r19~~~\--------------------------------------------------------|
|-----------------17b19r17--17--15--14h15p14------14-------------------|
|---------------------------------------------16------16b18r16b18r16\--|
|----------------------------------------------------------------------|
|----------------------------------------------------------------------|
|----------------------------------------------------------------------|

|--------------14--15--17--15--14h15p14------14---------15--17b19r17---|
|-/14--15--17----------------------------17------17~~------------------|
|----------------------------------------------------------------------|
|----------------------------------------------------------------------|
|----------------------------------------------------------------------|
|----------------------------------------------------------------------|

|--17--17b19r17--17----------------------------------------------------|
|----------------------------------------------------------------------|
|----------------------------------------------------------------------|
|----------------------------------------------------------------------|
|----------------------------------------------------------------------|
|----------------------------------------------------------------------|

Interlude:
|----------------------------------------------------------------------|
|----------------------------------------------------------------------|
|--------5-----4~--4--------2-----1--2--1h2p1--------------------------|
|-----7-----7---------5--3-----3--2------------2-----------------------|
|--0-------------------------------------------------------------------|
|----------------------------------------------------------------------|

|----------------------------------------------------------------------|
|----------------------------------------------------------------------|
|--------5-----4~--4--------2-----4--7--4h7p4--------------------------|
|-----7-----7---------5--3-----3--5------------5-----------------------|
|--0-------------------------------------------------------------------|
|----------------------------------------------------------------------|

Break:
|----------------------------------------------------------------------|
|----------------------------------------------------------------------|
|----------------------------------------------------------------------|
|--2------------(2)----------------------------------------------------|
|--2------------(2)----------------------12\---------------------------|
|--0------------(0)----------------------12\---------------------------|

Order:
Intro x 2
Verse Riff 1 x 2
Verse Riff 2 x 2
Chorus x 1
Verse Riff 1 x 2
Verse Riff 2 x 2
Verse Riff 1 x 1
Verse Riff 1 Variation x 1
Intro x 1
Guitar Solo 1 x 1
Guitar Solo 2 x 1
Interlude x 2
Intro x 2
Break x 1
Intro x 1
Verse Riff 1 x 2
Verse Riff 2 x 2
Verse Riff 1 x 1
Verse Riff 1 Variation x 1
Intro x 2

Guitar Solos arranged for 7 string in Standard Tuning (B E A D G B E ):

Guitar Solo 1: 
|----------------------------------------------------------------------|
|-----------------------------------------------------------8p7--------|
|-----------------------------------------------------7--9-------9p7---|
|--2/5~~------------5--7h9--5h7-----------------7--9-------------------|
|-----------7p5--7---------------7p5--7~~----9-------------------------|
|----------------------------------------------------------------------|
|----------------------------------------------------------------------|

|----------------------------------------------------------------------|
|--10b12r10--b12r10--8h10p8\7h8p7p6h7p6--------------------------------|
|----------------------------------------9b11---(11)r9~~~--------------|
|----------------------------------------------------------------------|
|----------------------------------------------------------------------|
|----------------------------------------------------------------------|
|----------------------------------------------------------------------|

|----------------------------------------------------------------------|
|--17b19r17------15--17b19r17--15----------17------15------------------|
|------------16--------------------16--14------16------16--------------|
|----------------------------------------------------------------------|
|----------------------------------------------------------------------|
|----------------------------------------------------------------------|
|----------------------------------------------------------------------|

Guitar Solo 2:
|----------9h14p9------------------------------------------------------|
|------10----------10--------------------------------------------------|
|--11------------------11~~---13--14--16--16b18r16b18r16~~-------------|
|----------------------------------------------------------------------|
|----------------------------------------------------------------------|
|----------------------------------------------------------------------|
|----------------------------------------------------------------------|

|----------------------------------------------------------------------|
|--14-14-14-19-14-14-14-19-14-14-14-19-14-14-14-19-14-19-19------------|
|----------------------------------------------------------------------|
|----------------------------------------------------------------------|
|----------------------------------------------------------------------|
|----------------------------------------------------------------------|
|----------------------------------------------------------------------|

|----------------------------------------------------------------------|
|--19b21r19~~~\--------------------------------------------------------|
|-----------------16b18r16--16--14--13h14p13------13-------------------|
|---------------------------------------------16------16b18r16b18r16\--|
|----------------------------------------------------------------------|
|----------------------------------------------------------------------|
|----------------------------------------------------------------------|

|----------------------------------------------------------------------|
|--------------14--15--17--15--14h15p14------14---------15--17b19r17---|
|-/13--14--16----------------------------16------16~~------------------|
|----------------------------------------------------------------------|
|----------------------------------------------------------------------|
|----------------------------------------------------------------------|
|----------------------------------------------------------------------|

|----------------------------------------------------------------------|
|--17--17b19r17--17----------------------------------------------------|
|----------------------------------------------------------------------|
|----------------------------------------------------------------------|
|----------------------------------------------------------------------|
|----------------------------------------------------------------------|
|----------------------------------------------------------------------|
comments
We did not receive enough feedback on this tab! Please rate:
print report bad tab
1 2 3 4 5
I want to post or [tab]
guest
You may want to rate the tab now too:
select rating
Please do not post tabs as comments. Select "correction" instead!