Oops, an error
Loading. Please wait.

Black Magic Woman Tab

ver2
ver2

Solo

Whole song

Interactive

More versions @911Tabs.com
41,932 views 34 this week
1 commentread comment
1 2 3 4 5
accurate
x 7
Autoscroll
+/-
esc
set tempo
stop
Contributor
Hey! There's an official Ultimate Guitar app which is ideal
for learning songs when you're away from computer. Get the app
WARNING: You are trying to view
                                    content from Ultimate-Guitar.com
                                    in an unauthorized application,
                                    which is prohibited.

                                    Please use an official Ultimate
                                    Guitar Tabs application for iPhone,
                                    iPad or Android to access legitimate
                                    chords, guitar, bass, and drum tabs
                                    from Ultimate-Guitar.com database.

                                    Type "ultimate guitar tabs" in Apple
                                    App Store's or Android Market's
                                    search to find the application.
                                BLACK MAGIC WOMAN
                             As recorded by Santana
                          (From the 1970 Album ABRAXAS)

Words and Music by Peter Green
Transcribed by bambam



          Gm                   Dm7                  Dm                 Am7XII
      3 5 5 3 3 3          x 5 7 5 6 5        x x 12 10 10 x      x 12 14 12 13 12

          Gm7              Dm(type 2)               Am7
    x 10 12 10 11 x      x x 12 10 10 10        5 7 5 5 5 5

   Intro
    Moderate Latin Q=120
    N.C.                                N.C.
   4/4
                                        Gtr I
||------------------|----------------||-------------------|-------------------|
||o-----------------|---------------o||-8p6---------------|-(6)---------------|
||------------------|----------------||-------------------|----------------7s=|
||------------------|----------------||-------------------|-------------------|
||o-----------------|---------------o||-------------------|-------------------|
||------------------|----------------||-------------------|-------------------|
|
|   Gtr III
||------------------|----------------||-------------------|-------------------|
||o-1-3---1-3---0-3-|-1-3---1-3-----o||---1-3---1-3---0-3-|--1--3---1-3-------|
||------2-----2-----|-----2----------||-------2-----2-----|-------2-----------|
||--0---2---0---2---|-0---2---0--2---||---0---2---0---2---|--0----2---0--2----|
||o-----------------|---------------o||-------------------|-------------------|
||------------------|----------------||-------------------|-------------------|


    ~            ~~~~~~~~~~~
|---------------------|--------------------|
|---------------------|----------------6h8p|
|-9s7-----(7)---(7)---|-(7)----------------|
|---------------------|--------------------|
|---------------------|--------------------|
|---------------------|--------------------|
|
|---------------------|--------------------|
|-1-3---1--3-----0--3-|--1--3---1-3--------|
|-----2-------2-------|-------2------------|
|-0---2----0-----2----|--0----2---0--2-----|
|---------------------|--------------------|
|---------------------|--------------------|


|-----------------|---------------------|
|-6---------------|-(6)------------8----|
|-----------------|---------------------|
|-----------------|---------------------|
|-----------------|---------------------|
|-----------------|---------------------|
|
|-----------------|---------------------|
|-1-3---1-3---0-3-|--1--3---1-3---------|
|-----2-----2-----|-------2-------------|
|-0---2---0---2---|--0----2---0--2------|
|-----------------|---------------------|
|-----------------|---------------------|


                                                                 Gm
                                                                 Gtr II
                                                                  |
                                                                  /

|-----------------------|-------------------|------------------|--------------|
|-----------------------|-------------------|-10-----8-----6s5-|-(5)----------|
|-7s9s==7-(7)-----------|-(7)----------(7)--|------------------|--------------|
|-----------------------|-------------------|------------------|--------------|
|-----------------------|-------------------|------------------|--------------|
|-----------------------|-------------------|------------------|--------------|
|
|-----------------------|-------------------|------------------|--------------|
|---1-3-------1-3---0-3-|--1--3---1-3-------|--1-3---1-3---0-3-|--------------|
|----------2------2-----|-------2-----------|------2-----2-----|--------------|
|---0------2----0---2---|--0----2---0---2---|--0---2---0---2---|--------------|
|-----------------------|-------------------|------------------|--------------|
|-----------------------|-------------------|------------------|--------------|


                Dm7                         Gm
  |              |            |              |
  /              /            /              /

|-------------|------------|--------------|------------|
|-8---6---5s3-|-(3)--------|-10---8---6s5-|-(5)--------|
|-------------|------------|--------------|------------|
|-------------|------------|--------------|------------|
|-------------|------------|--------------|------------|
|-------------|------------|--------------|------------|


                Dm7
  |              |
  /              /

                 <
|------------|-----------------10--|
|-8---6---5--|--------------10-----|
|------------|-----------10--------|
|------------|--------12-----------|
|------------|-----12--------------|
|------------|--10-----------------|


                                     Dm
  |                                    |
  /                                    /

|----------------------------------|------------------------|
|---13b15--13--13pb15r13p10-13b15==|=(13)----(13)r-13p10----|
|----------------------------------|------------------------|
|----------------------------------|------------------------|
|----------------------------------|------------------------|
|----------------------------------|------------------------|


                                       Am7
  |                                    |
  /                                    /

    ~~~~~
|----------10------------------------|----------------|
|--13b15------13-10------------------|----------------|
|-------------------12-12pb14r=12-10s|=9---(9)---(9)--|
|------------------------------------|----------------|
|------------------------------------|----------------|
|------------------------------------|----------------|


                          Dm7
   |                       |
   /                       /

|-------------12h13--12-|-13p12p10---------------------|
|-------10-13-----------|----------13b15r13b15r13p10---|
|--9s10-----------------|------------------------------|
|-----------------------|------------------------------|
|-----------------------|------------------------------|
|-----------------------|------------------------------|


  |
  /

|----------10---------------|
|--13b15------13-10---------|
|--------------------12b14==|
|---------------------------|
|---------------------------|
|---------------------------|


  Gm7
    |                                       |
    /                                       /

|---------------------------10-12--13b15-|-13r---15b17==(15)r====|
|------------------------11--------------|-----------------------|
|-(12)r(12)p10-(10)---12-----------------|-----------------------|
|----------------------------------------|-----------------------|
|----------------------------------------|-----------------------|
|----------------------------------------|-----------------------|


  Dm(type 2)         Am7
   |                 |
   /                 /

            ~~
|-15p13----13------|--17b20---(17)s=10--|
|-------15---------|--------------------|
|------------------|--------------------|
|------------------|--------------------|
|------------------|--------------------|
|------------------|--------------------|


  Dm(type 2)
   |                                     |
   /                                     /

|-------------------------------------|--------------------|
|----------------10-------------------|--------------------|
|-12b14r12p10h12----12-10h12p10-------|--------------------|
|-------------------------------12-10-|-12-10--------------|
|-------------------------------------|-------12-11-10s8---|
|-------------------------------------|--------------------|


              1st Verse
               Dm7                                     Am7
   |
   /

               Gtr II
|-10--------||-10---------------|--------------------|-------------------|
|-10--------||-10--x--x-10-9-10-|-(10)---10-(10)-10--|-5----5-(5)---5----|
|-10--------||-10--x--x-10-9-10-|-(10)---10-(10)-10--|-5----5-(5)---5----|
|-10--------||-10--x--x-10-9-10-|-(10)---10-(10)-10--|-5----5-(5)---5----|
|-12--------||-12--x--x---------|--------------------|-7--x-7-(7)-x-7----|
|-10--------||-10---------------|--------------------|-5--x-5-(5)-x-5----|


                Dm7
|---------5---|-----10-10-(10)--------|
|-8-8-8---8---|-----10-10-(10)--------|
|-5-5-5---5---|-----10-10-(10)--------|
|-5-5-5---5---|-----10-10-(10)--12-10-|
|-7-7-7-------|-12--------------------|
|-------------|-10--------------------|


                       Gm7
|--------------------|-3----------------3-----|
|----13-12-(12)-10---|-3------------[3]-3-x-x-|
|----10-10-(10)-10---|-3--3h5p3-(3)-----3-x-x-|
|----10-10-(10)-10---|-5----------------------|
|--------------------|------------------------|
|-10-----------------|------------------------|


|-------------3--x-|-----10-10-10-10----|----------------|-----10----10------|
|-x-6-5-5-(5)-3--x-|-----10-10-10-10--x-|----------------|-----10--x-10-x-10-|
|-x-3-3-3-(3)-3----|-----10-10-10-10--x-|-12--x-x-x-12---|-----10--x-10-x-10-|
|---5-5-5-(5)-5----|-----10-10-10-10--x-|--x--x-x-x--x---|----------------10-|
|------------------|-12-----------------|-12--x-x-x-12---|-------------------|
|------------------|-10-----------------|----------------|-10----------------|


              2nd Verse
               Dm7                                     Am7
|-10--------||--10--10--10-------|-------------------|--------------|
|-10--------||--10--10--10--9-10-|-(10)----(10)-10---|--------------|
|-10--------||--10--10--10--9-10-|-(10)----(10)-10---|-12--x--x--x--|
|-10--------||--------------9-10-|-(10)----(10)-10---|--x--x--x--x--|
|-12--------||-------------11-12-|-(12)----(12)-12---|-12--x--x--x--|
|-10--------||-------------------|-------------------|--------------|


                   Dm7                                Gm
|----------------|----5-5-(5)-5----|---8-7-(7)-5----|----------------------|
|----------------|----6-6-(6)-6--6-|---6-6-(6)-6--6-|-3------------3-3-x---|
|-12--x-x-x-12---|----5-5-(5)-5--5-|---5-5-(5)-5--5-|-3--3h5p3-(3)-3-3-x---|
|--x--x-x-x--x---|-5-------------7-|-5------------7-|-5--------------------|
|-12--x-x-x-12---|-7---------------|-7--------------|--------------------5-|
|----------------|-----------------|----------------|----------------------|


                   Dm7            Am7              Dm7
|---------^5--3--|----5-5-5-5---|----------------|-------10-10----10--------|
|---^6-^5-^3--3--|----6-6-6-6---|-----------8--x-|----10-10-10-10-10-10-10--|
|---^3-^3-^3--3--|----5-5-5-5---|-----------5--x-|-10-10-10-10-10-10-10-10--|
|---^3-^3-^5--5--|-5------------|-----------5--x-|-10----------10----10-10--|
|-3--------------|-7------------|-7---7-(7)------|-12-----------------------|
|----------------|--------------|-5--------------|-10-----------------------|


 Guitar Solo
  Dm7                             Dm7
  Gtr II
  |                                |      |   |  | |  |  |
  /                                /      x   /  / x  /  /

  Gtr I
                                                 ~~~~~~~~
|----------------10-------------|---------------------------|
|--13b15==(13)r-----13b15r13b15-|-13b15r(13)-13p10--(10)----|
|-------------------------------|---------------------------|
|-------------------------------|---------------------------|
|-------------------------------|---------------------------|
|-------------------------------|---------------------------|


                                              Am7
  |  |                 |              |       | ||||||
  /  /                 /              /       / x//x//

                                              ~
|---13p12p10--------------------------------|----------|
|------------13b15r13p10--------------------|----------|
|-------------------------12b14r(12)-12-10s=|=9--------|
|-------------------------------------------|----------|
|-------------------------------------------|----------|
|-------------------------------------------|----------|


                        Dm7
   |  |  |  |             |   |  |  |  |       |
   /  /  /  /             /   x  /  /  x       /

   ~~~                                 ~~~~~~~~~~~~
|----------------12---|-(12)-13p12p10-----------------|
|----------10-13------|---------------13b15==(13)r----|
|-(9)-9s10------------|-------------------------------|
|---------------------|-------------------------------|
|---------------------|-------------------------------|
|---------------------|-------------------------------|


                             Gm7
  | |     ||  |   |  |         |   | |  |  |      |
  / x     //  x   /  /         /   x /  /  x      /

                                                         ~~
|--13b15====(13)r---15b17==|=(15)r--15p13-15b17r(15)-15p13-|
|--------------------------|-------------------------------|
|--------------------------|-------------------------------|
|--------------------------|-------------------------------|
|--------------------------|-------------------------------|
|--------------------------|-------------------------------|


                          Dm7
  ||| |                    |  |  |  |  |  |
  /// /                    /  x  /  /  x  /

                                                ~~~~~~~~
|----17b20==(17)r\---12h|=13p12p10-12h13p12p10---------|
|-----------------------|----------------------13b15===|
|-----------------------|------------------------------|
|-----------------------|------------------------------|
|-----------------------|------------------------------|
|-----------------------|------------------------------|


  Am7                                  Dm7
    |    |  |  |  |      |               |   |  |  |  |  |
    /    x  /  /  x      /               /   x  /  /  x  /

 ~~~~~~~
|-------10---------------------------|----------------------------------|
|-(13)r----13p10------------------10-|-(10)----10-13p10-----------------|
|----------------12b14r(12)-10----10-|-(10)-------------12b14r(12)-10---|
|------------------------------12----|------12--------------------------|
|------------------------------------|----------------------------------|
|------------------------------------|----------------------------------|


                                        Dm7
  |                                       |   | |      |    |        |
  /                                       /   x /      /    x        /

                                                            ~~~~~~~~~~~~~~~~~~~
|-------------------------------------|-----------------------------------------|
|--13b15==(13)r--15b17==(15)r--13b15==|=(13)r-----------------------------------|
|-------------------------------------|--------12b13r(12)-(12)b14==(12)--(12)r--|
|-------------------------------------|-----------------------------------------|
|-------------------------------------|-----------------------------------------|
|-------------------------------------|-----------------------------------------|


                                         Am7
    |    || |                             |  |||||
    /    // /                             /  x//x/

    ~~~~~                                 ~~~
|----------10--------------------------|-------------|
|--13b15------13-10--------------------|-------------|
|-------------------12-12b14r(12)-10s9-|-(9)---------|
|--------------------------------------|-------------|
|--------------------------------------|-------------|
|--------------------------------------|-------------|


                              Dm7
  |  |  |  |                   | | |      |   |    | |
  /  /  /  /                   / x /      /   x    / /

|---------------------------|-10---------------------------10-----|
|------10-13-13b14====(13)r-|-----13b15r(13)-13b15r=13p10--13b15==|
|-9s10----------------------|-------------------------------------|
|---------------------------|-------------------------------------|
|---------------------------|-------------------------------------|
|---------------------------|-------------------------------------|


                       Gm7
    |    |  | ||||      |  |  |  |       |    |
    /    x  / /x//      /  x  /  /       x    /

            ~~                   ~~~~~~~~~~~~~~~~~
|-(10)---------------|----10-12-13b15==(13)-(13)r--15b17====|
|-(13)r-10-----------|-11-----------------------------------|
|-------10-10-----12-|--------------------------------------|
|--------------------|--------------------------------------|
|--------------------|--------------------------------------|
|--------------------|--------------------------------------|


    |   || |       |   |
    /   x/ /       x   /

|-(15)r---17b20==(17)r--20b22r(20)-20b22==|
|-----------------------------------------|
|-----------------------------------------|
|-----------------------------------------|
|-----------------------------------------|
|-----------------------------------------|


  Dm7                                   Am7
    |    | |      |    |      |           |   |  |  |  |  |
    /    x /      /    x      /           /   x  /  /  x  /

                                    ~~~~~~~~~
|-(20)r\---------------------------10-|-(10)-------10-------10-13p10h====|
|-------------------------------13----|------10-13----10h13--------------|
|---------12b14r(12)-(12)b14==========|==================================|
|-------------------------------------|----------------------------------|
|-------------------------------------|----------------------------------|
|-------------------------------------|----------------------------------|


  Dm7
   |  |  |  |  |  |
   /  x  /  /  x  /

|-13p10h13p10-------------------------------|
|-------------13p10h13p10-------------------|
|-------------------------12p10h12p10-------|
|-------------------------------------12-10-|
|-------------------------------------------|
|-------------------------------------------|


                         3rd Verse
                          Dm7
  |                         |  ||||||
  /                         /  x//x//

                     ~~~~~~~~~~
|----------------------||------------|
|----------------------||------------|
|-----------------9s10-||-(10)-------|
|-----------10h12------||------------|
|--10s11s12------------||------------|
|----------------------||------------|


                                  Am7
  | |    |  | |    |              |  |||||
  / x    /  / x    /              /  x//x/

|-------------------------------|----------|
|-------------------------------|----------|
|-------------9s10--12b14r12p10s|=9--------|
|----------10-------------------|----------|
|----10s12----------------------|----------|
|-------------------------------|----------|


                    Dm7
   |  ||| |  |       |   |     |      |   |   ||
   /  x// x  /       /   x     /      /   x   //

|-----------------|-------------------------------|
|-----------------|-----10-------------10--10-----|
|-12-----12-12-12-|-----10h12p10-(10)--10--10--x--|
|-----------------|----------------------------x--|
|-12-----12-12-12-|-------------------------------|
|-----------------|-10----------------------------|


                      Gm7
  |   |   |  |  | |   |  |      |  | | |
  /   x   /  /  x /   /  x      /  / x /

|-------------------|----------------3-----|
|--13--12--(12)-3---|-3------------3-3-x-x-|
|--10--10--(10)-2---|-3--3h5p3-(3)-3-3-x-x-|
|--10--10--(10)-3---|-5--------------------|
|-------------------|----------------------|
|-------------------|----------------------|


                      Dm7
  |   | |    |  ||    |  | || | |
  /   x /    /  x/    /  x // x /

|---3-3--(3)--3---3-|----5--5-5------|
|-x-6-5--(5)--3---3-|----6--6-6-x-x--|
|-x-3-3--(3)--3---3-|----5--5-5-x-x--|
|---5-5--(5)--5---5-|----7--7-7-x-x--|
|-------------------|-5--5--5-5------|
|-------------------|----------------|


                                     Outro
  Am7                Dm7
   |   | ||  | |     |
   /   x //  x /     /

|------------------|----5-5-(5)-5---|-------------------|-------------------|
|------------------|-6--6-6-(6)-6---|-8p6---------------|-(6)---------------|
|-12--12--x-12-x-x-|-5--5-5-(5)-5---|-------------------|----------------7s=|
|--x---x--x--x-x-x-|-7--------------|-------------------|-------------------|
|-12--12--x-12-x-x-|-5--------------|-------------------|-------------------|
|------------------|----------------|-------------------|-------------------|
|
|                                     Gtr III
|------------------|----------------|-------------------|-------------------|
|------------------|----------------|---1-3---1-3---0-3-|--1--3---1-3-------|
|------------------|----------------|-------2-----2-----|-------2-----------|
|------------------|----------------|---0---2---0---2---|--0----2---0--2----|
|------------------|----------------|-------------------|-------------------|
|------------------|----------------|-------------------|-------------------|


    ~~~~~~~~~~~~~~~~~~~~~~
|-------------------|--------------------|
|-------------------|----------------6h8p|
|-9s7-----(7)-------|-(7)----------------|
|-------------------|--------------------|
|-------------------|--------------------|
|-------------------|--------------------|
|
|-------------------|--------------------|
|-1-3---1--3----0-3-|--1--3---1-3--------|
|-----2-------2-----|-------2------------|
|-0---2----0----2---|--0----2---0--2-----|
|-------------------|--------------------|
|-------------------|--------------------|


|-----------------|---------------------|
|-6---------------|-(6)------------8----|
|-----------------|---------------------|
|-----------------|---------------------|
|-----------------|---------------------|
|-----------------|---------------------|
|
|-----------------|---------------------|
|-1-3---1-3---0-3-|--1--3---1-3---------|
|-----2-----2-----|-------2-------------|
|-0---2---0---2---|--0----2---0--2------|
|-----------------|---------------------|
|-----------------|---------------------|


           <
|-----------------------|-----------------|
|-----------------------|-----------------|
|-7s9s==7-(7)-----------|-(7)-------------|
|-----------------------|-----------------|
|-----------------------|-----------------|
|-----------------------|-----------------|
|
|-----------------------|-----------------|
|---1-3-------1-3---0-3-|--1--3---1-3-----|
|----------2------2-----|-------2---------|
|---0------2----0---2---|--0----2---0--2--|
|-----------------------|-----------------|
|-----------------------|-----------------|


|------------|-------------|---------------|
|------------|-------------|---------------|
|-(7)--------|-------------|---------------|
|------------|-0---0---0---|-0---0---0-----|
|------------|---0---0---0-|---0---0---0---|
|------------|-------------|---------------|
|
|------------|-------------|---------------|
|------------|-------------|---------------|
|------------|-------------|---------------|
|------------|-------------|---------------|
|------------|-------------|---------------|
|------------|-------------|---------------|


|-2--------|-(2)----*|
|-3--------|-(3)----*|
|-2--------|-(2)----*|
|-0--------|-(0)----*|
|-0--------|-(0)----*|
|----------|--------*|


Tablature Legend
----------------
 h   - hammer-on
 p   - pull-off
 b   - bend
 pb  - pre-bend
 r   - bend release (if no number after the r, then release immediately)
 /\  - slide into or out of (from/to "nowhere")
 s   - legato slide
 S   - shift slide
  - natural harmonic
[n]  - artificial harmonic
n(n) - tapped harmonic
 ~   - vibrato
 tr  - trill
 T   - tap
 TP  - trem. picking
 PM  - palm muting
\n/  - tremolo bar dip; n = amount to dip
 \n  - tremolo bar down
 n/  - tremolo bar up
/n\  - tremolo bar inverted dip
 =   - hold bend; also acts as connecting device for hammers/pulls
 <>  - volume swell (louder/softer)
 x   - on rhythm slash represents muted slash
 o   - on rhythm slash represents single note slash
comments
print report bad tab
1 comment total.
0 reply
sundeepo1 wrote on August 3 2006, 11:12 am

copied from power tab or guitar pro

wrong version

if you want the real one pm me
its from an interview

I want to post or [tab]
guest
You may want to rate the tab now too:
select rating
Please do not post tabs as comments. Select "correction" instead!