Oops, an error
Loading. Please wait.

Curacion Tab

18,245 views 27 this week
4 commentsread comments
1 2 3 4 5
excellent!
x 11
Autoscroll
+/-
esc
set tempo
stop
Contributor
Hey! There's an official Ultimate Guitar app which is ideal
for learning songs when you're away from computer. Get the app
WARNING: You are trying to view
                                    content from Ultimate-Guitar.com
                                    in an unauthorized application,
                                    which is prohibited.

                                    Please use an official Ultimate
                                    Guitar Tabs application for iPhone,
                                    iPad or Android to access legitimate
                                    chords, guitar, bass, and drum tabs
                                    from Ultimate-Guitar.com database.

                                    Type "ultimate guitar tabs" in Apple
                                    App Store's or Android Market's
                                    search to find the application.
Song Title: CuraciĆ³n
Artist/Band: Santana
Album: Ceremony, 2004.

Tab by JC Rea(jcrp_21@hotmail.com)

Symbols:

h=hammer-on
p=pull-off
/=slide-up
b=bend
r=release bend
[]=bend before picking
~=left hand vibrato
()=Let ring
/////=Tremolo picking

Tuning:Standard

NOTE: I use the * symbols to separate the tab into "easy to handle" parts.


INTRO:
e|-12b13r12----------------------------------------------------------------------------|
B|----------15-13-15-13---11-10-11-10----10--------------------------------------------|
G|------------------------------------12----12---10-12-10----10------------------------|
D|--------------------------------------------------------12----12-10-8-10/12----------|
A|----------------------------------------------------------------------------10-10-10-|
E|-------------------------------------------------------------------------------------|
  0:09


e|-------------------------------------------10~~~--|
B|--------------------------------------------------|
G|-------------------------------10-10-12-12--------|
D|----8-10-12----8-10-10---12-12--------------------|
A|-10---------10------------------------------------|
E|--------------------------------------------------|
  0:20

         *       *       *        *        *


e|-10-11p10--11-10---11-10~~~--|-10-10-10--11-13-----------------|
B|-----------------------------|-----------------11-10h11p10-----|
G|-----------------------------|-----------------------------12--|
D|-----------------------------|---------------------------------|
A|-----------------------------|---------------------------------|
E|-----------------------------|---------------------------------|
  0:31

e|----------------|----------|
B|----------------|----------|
G|-5b7r5---5-7-5--|----------|
D|-------8--------|----------|
A|----------------|-8-10-10--|----->Barely audible
E|----------------|----------|


e|-10-11p10--11-10---11-10~~~--|-10-10-10--11-13-----------------|
B|-----------------------------|-----------------11-10h11p10-----|
G|-----------------------------|-----------------------------12--|
D|-----------------------------|---------------------------------|
A|-----------------------------|---------------------------------|
E|-----------------------------|---------------------------------|
  0:46

e|----------------|
B|----------------|
G|-5b7r5---5-7-5--|
D|-------8--------|
A|----------------|
E|----------------|


       *       *        *        *        *


e|------------------------|---------6----|
B|------------------------|-6h8-8-8---8--|
G|------------------------|--------------|
D|--------------8-8-8h10--|--------------|
A|-8h10-10-8-10-----------|--------------|
E|------------------------|--------------|
  1:01

e|-------------------------------------|----8---------|
B|---------------------8-11-8--(8)h10--|-11---8-11-8--|
G|-5/7-5---5---------------------------|--------------|
D|-------8---5-8h10--------------------|--------------|
A|-------------------------------------|--------------|
E|-------------------------------------|--------------|
  1:09

e|--------------------|
B|---------------6----|
G|-5h7-7-5---5/7---7--|
D|---------8----------|
A|--------------------|
E|--------------------|
  1:17

e|---------8-10-13--15-15--15~15~15~15~--18--15~~~--|
B|----8-11------------------------------------------|
G|-10-----------------------------------------------|
D|--------------------------------------------------|
A|--------------------------------------------------|
E|--------------------------------------------------|
  1:22

      *       *       *        *        *

e|-----6-5---------------------------------|-----6-5----------------------------------|
B|-6h8-----6---6h8--6h8-6------------------|-6h8-----6---6h8-6h8p6-6----8-------------|
G|-----------7------------------5---7-8-7--|-----------7--------------7---8-5h7--5----|
D|--------------------------8-8------------|---------------------------------------5--|
A|-----------------------------------------|------------------------------------------|
E|-----------------------------------------|------------------------------------------|
  1:30

e|---6-5----------------------------|-----6-5-5---------5-6-6------------------|
B|-8-----6---6h8-8p6-6--------------|-6h8-------6---6h8-------6---8------------|
G|---------7---------------5-7-8-7--|-------------7-------------7---8-7-3h5----|
D|---------------------8-8----------|---------------------------------------5--|
A|----------------------------------|------------------------------------------|
E|----------------------------------|------------------------------------------|
  1:45

        *       *       *        *        *

e|-----6------8b10~--13---10--8b10~~~10~~~--|-10---6-6-6--8------|
B|-6-8---6----------------------------------|---------------8-8--|
G|------------------------------------------|--------------------|
D|------------------------------------------|--------------------|
A|------------------------------------------|--------------------|
E|------------------------------------------|--------------------|
  2:01

e|-8b10-10-10r8--8-8-6-8-10-8-6-6---6---8b10--8b10--11-10--11p10-11p10--|
B|------------------------------------8---------------------------------|
G|----------------------------------------------------------------------|
D|----------------------------------------------------------------------|
A|----------------------------------------------------------------------|
E|----------------------------------------------------------------------|
  2:13

e|-8b10-10---13---8h10p8---10-10-18---6-8---8-6---6h8--|
B|-----------------------------------------------------|
G|-----------------------------------------------------|
D|-----------------------------------------------------|
A|-----------------------------------------------------|
E|-----------------------------------------------------|
  2:17

e|-----------------------------------------10--13b15-13b15-13b15~--13--
B|-11b13-11b13-11-----------------8-8-8-11-----------------------------
G|----------------12--------7-10---------------------------------------
D|-------------------8/10-8--------------------------------------------
A|---------------------------------------------------------------------
E|---------------------------------------------------------------------
  2:22

  ----13b15------------------------|
  -15------15p13-------11-13-11h13-|
  ---------------15p12-------------|
  ---------------------------------|
  ---------------------------------|
  ---------------------------------|


e|----15-18b20r18--[18]b20r18-[18]b20-20-20r18--15h18p15----15--18p15----15-18p15----15~~~--|
B|-15----------------------------------------------------18-----------18----------18--------|
G|------------------------------------------------------------------------------------------|
D|------------------------------------------------------------------------------------------|
A|------------------------------------------------------------------------------------------|
E|------------------------------------------------------------------------------------------|
  2:37

e|-11p8------------------------------10-10--13-13--15-15-15--17-17-17--18---18b20-18b20-18b20---
B|-----------------10-10-11-11-13-13------------------------------------------------------------
G|----------------------------------------------------------------------------------------------
D|------10-8-10/12------------------------------------------------------------------------------
A|----------------------------------------------------------------------------------------------
E|----------------------------------------------------------------------------------------------
  2:46

  -18-------------13b15r13b15---13b15r13p10---------10h13p10----10--|
  ----10-18-20-20---------------------------13p11----------13-------|
  ------------------------------------------------------------------|
  ------------------------------------------------------------------|
  ------------------------------------------------------------------|
  ------------------------------------------------------------------|

        *       *       *        *        *

e|-----6-5------------------------------|-----6-5----------------------------------|
B|-6h8-----6---6h8-6h8-6----------------|-6h8-----6---6h8-6h8p6-6-----8------------|
G|-----------7-----------------5-7-8p7--|-----------7---------------7---8-5h7p5----|
D|------------------------8-8-----------|---------------------------------------5--|
A|--------------------------------------|------------------------------------------|
E|--------------------------------------|------------------------------------------|
  3:01

e|---6-5-------------------------------|---6-5-5---------5-6-6----------------------|
B|-8-----6---6h8-8p6-6-----------------|-8-------6---6h8-------6-----6--------------|
G|---------7------------------5-7-8-7--|-----------7---------------7---8-8-5h7p5----|
D|-----------------------8-8-----------|-----------------------------------------5--|
A|-------------------------------------|--------------------------------------------|
E|-------------------------------------|--------------------------------------------|
  3:16

        *       *       *        *        *

e|-6--8-8p6--------10h15--18-18p15--10------------------|
B|-8--8-8----11/13------------------10--13p11--5h7-8p7--|
G|------------------------------------------------------|
D|------------------------------------------------------|
A|------------------------------------------------------|
E|------------------------------------------------------|
  3:32

e|-13/15/////--17-18--13-13----10-13-11p10--------|
B|-----------------------------------------13-----|
G|--------------------------------------------12--|
D|------------------------------------------------|
A|------------------------------------------------|
E|------------------------------------------------|
  3:40

e|-11-10-8b10r8--6----------|
B|-----------------8/10--8--|
G|--------------------------|
D|--------------------------|
A|--------------------------|
E|--------------------------|
  3:48

e|-13-15--18-17-15--18-17p15--18p17p15--18p17p15--18p17p15--18b20-20r18--15h17p15p13--
B|------------------------------------------------------------------------------------
G|------------------------------------------------------------------------------------
D|------------------------------------------------------------------------------------
A|------------------------------------------------------------------------------------
E|------------------------------------------------------------------------------------
  3:55

  -13b15-16------------13b15--|
  ----------15-13-------------|
  ----------------15----------|
  ----------------------------|
  ----------------------------|
  ----------------------------|


e|-11-11-10--------------------|
B|-----------------------------|
G|-----------7-5/7-5-----------|
D|-------------------8--5/7-5--|
A|-----------------------------|
E|-----------------------------|
  4:03

  Rapid phrase:
e|-13-15----13------------------------------------13-11-----------------------------------
B|-------15-----15p13-15-13h15-13-----------13-15-------15-16---15h15p15----15p13-13p11---
G|---------------------------------15p12-15------------------------------17---------------
D|----------------------------------------------------------------------------------------
A|----------------------------------------------------------------------------------------
E|----------------------------------------------------------------------------------------
  4:10

  -----------------------------------------|
  ------------------------------------8-8--|
  -12-15p14--12-15-10----------------------|
  ---------------------12-10-8--10p8-------|
  -----------------------------------------|
  -----------------------------------------|



e|--------------------------|
B|-6h8--8-6-6---------------|
G|-----------------5-7-8-7--|
D|-------------8-8----------|
A|--------------------------|
E|--------------------------|
  4:18

  Another very rapid phrase:
e|---------------------------------------------------|
B|-13b(15)-13-11----8-----------------------6-4-6/8--|
G|---------------10---7-------------------5----------|
D|----------------------10-8-8-10/12-12-8------------|
A|---------------------------------------------------|
E|---------------------------------------------------|
  4:25


e|------------------------------|
B|---4-6------------------------|
G|-7-----8p7---5----------------|
D|-----------8---5-----8-7---5--|
A|-------------------------8----|
E|------------------------------|
  4:34

e|-10----------13~~~--|
B|-11----------11~~~--|
G|-12-----------------|
D|-12-----------------|
A|--------------------|
E|--------------------|.  .  .  END
  4:40        4:42


Comments:jcrp_21@hotmail.com
comments
print report bad tab
4 comments total. Showing first comments.
+2 reply
theguitarman101 wrote on September 14 2006, 04:10 pm

this is a reali gd tab it gets 5 stars from me

+1 reply
Gmarkey wrote on April 19 2009, 10:44 am

Yeeaahh dude this tab is awesome

+1 reply
JC Rea wrote on April 24 2011, 12:25 pm

Thanks a lot!!!

I want to post or [tab]
guest
You may want to rate the tab now too:
select rating
Please do not post tabs as comments. Select "correction" instead!