Oops, an error
Loading. Please wait.

Flor D Luna Tab

ver2
ver2

Whole song

More versions @911Tabs.com
16,387 views 9 this week
1 commentread comment
1 2 3 4 5
accurate
x 5
Autoscroll
+/-
esc
set tempo
stop
Contributor
Difficulty
intermediate
Hey! There's an official Ultimate Guitar app which is ideal
for learning songs when you're away from computer. Get the app
WARNING: You are trying to view
                                    content from Ultimate-Guitar.com
                                    in an unauthorized application,
                                    which is prohibited.

                                    Please use an official Ultimate
                                    Guitar Tabs application for iPhone,
                                    iPad or Android to access legitimate
                                    chords, guitar, bass, and drum tabs
                                    from Ultimate-Guitar.com database.

                                    Type "ultimate guitar tabs" in Apple
                                    App Store's or Android Market's
                                    search to find the application.
Flor d'Luna - Carlos Santana                           

Tab by tmeik from www.mysongbook.com 
Exported to ASCII from Guitar Pro 4 (GP4 export bugs corrected by n_creep, sorry for any mistakes)


                                                       
E||------------------------------|--------------------|
B||--------------15------13------|--------------------|
G||---------14---------------15--|--14----------------|
D||----12------------------------|--------------------|
A||------------------------------|--------------------|
E||------------------------------|--------------------|


                                                
--------------------------|--------------------|
----------15--13----------|--------------------|
------------------15--14r-|--------12----------|
--------------------------|--------------------|
--------------------------|--------------------|
--------------------------|--------------------|


                                                    
------------------------------|--------------------|
------------------------------|--------------------|
--------------12--------------|--14----------------|
----14---15-----------15--14--|--------------------|
------------------------------|--------------------|
------------------------------|--------------------|


                                                  
----------------------------|--------------------|
--------------13------------|--15----------------|
----14---15----------15-14--|--------------------|
----------------------------|--------------------|
----------------------------|--------------------|
----------------------------|--------------------|


                                                                        
---------------------------------|--------------------------------------|
-- ------------------------------|--------------------------------------|
----12----14----14h15---14---12--|--12h14----------12----14----12-------|
---------------------------------|--------15----------------------15----|
---------------------------------|--------------------------------------|
---------------------------------|--------------------------------------|


                                                        
----------------------------------|--------------------|
----------------------------------|--------------------|
--12----------------12------------|--------------------|
--------14----15---------15---11--|--12----------------|
----------------------------------|--------------------|
----------------------------------|--------------------|


                                                    
------------------------------|--------------------|
--------------15------13------|--------------------|
---------14---------------15--|--14----------------|
----12------------------------|--------------------|
------------------------------|--------------------|
------------------------------|--------------------|


                                                  
--------------------------|----------------------|
----------15--13----------|----------------------|
------------------15--14r-|--------12--12--------|
--------------------------|----------------------|
--------------------------|----------------------|
--------------------------|----------------------|


                                                    
------------------------------|--------------------|
------------------------------|--------------------|
--------------12--------------|--14----------------|
----14---15-----------15--14--|--------------------|
------------------------------|--------------------|
------------------------------|--------------------|


                                                    
------------------------------|--------------------|
--------------13--------------|--15----------------|
----14---15-----------15--14--|--------------------|
------------------------------|--------------------|
------------------------------|--------------------|
------------------------------|--------------------|


                                     
-------------------------------------|
-------------------------------------|
----12----14----14h15----14----12----|
-------------------------------------|
-------------------------------------|
-------------------------------------|


                                                                          
---------------------------------------|----------------------------------|
---------------------------------------|----------------------------------|
12h14----12----12h14----14p12----------|--12----------------12------------|
------15--------------------------15---|--------14----15---------15---11--|
---------------------------------------|----------------------------------|
---------------------------------------|----------------------------------|


                                                                   
--------------------|------------------------|--------------------|
--------------------|------------------13----|--15----------------|
--------------------|----14------15----------|--------------------|
--12----------------|------------------------|--------------------|
--------------------|------------------------|--------------------|
--------------------|------------------------|--------------------|


                                                
----------13--12----------|--------------------|
------------------15--15b-|--------------------|
--------------------------|-----------------14-|
--------------------------|--------------------|
--------------------------|--------------------|
--------------------------|--------------------|


                                                
----------------------------|------------------|
--13h15--13-----------------|------------------|
------------------14r---12--|------------------|
----------------------------|------------------|
----------------------------|------------------|
----------------------------|------------------|


                                                    
------------------------------|--------------------|
------------------------------|--------------------|
--------------12---14--14h15--|--14----------------|
----14---15-------------------|--------------------|
------------------------------|--------------------|
------------------------------|--------------------|


                                              
------------------------|--------------------|
------------------13----|--15----------------|
----14------15----------|--------------------|
------------------------|--------------------|
------------------------|--------------------|
------------------------|--------------------|


                                                    
----15--13--12----13-15-------|--------------------|
--------------------------15b-|-----------------13-|
------------------------------|--------------------|
------------------------------|--------------------|
------------------------------|--------------------|
------------------------------|--------------------|


                                                              
----------------------------------------|--------------------|
--13------13h15--13h15--13--------------|--------------------|
------14------------------------12------|--------------------|
------------------------------------15--|--14----------------|
----------------------------------------|--------------------|
----------------------------------------|--------------------|


                                                                         
--------------------------------|--------------------|------------------|
--------------------------------|--------------------|------------------|
------------------12------------|--------------------|------------------|
------14----15---------15---11--|--12----------------|------------------|
--------------------------------|--------------------|------------------|
--------------------------------|--------------------|------------------|


                                                                 
------------------|------------------|--------------------------|
------------------|------------------|--------------------------|
------------------|------------------|--14----------15--14--12--|
------------------|------------------|--------------------------|
------------------|------------------|--------------------------|
------------------|------------------|--------------------------|


                                                                           
------------------------|------------------------|------------------------|
------------------------|------15----------------|------------------------|
----------14----15--14--|--------------14----12--|----------15p-12--15----|
------------------------|------------------------|------------------------|
------------------------|------------------------|------------------------|
------------------------|------------------------|------------------------|


                                                      
--------------------------|--------------------------|
--------------------------|--------------------------|
--14----------15--14--12--|------------15----15--14--|
--------------------------|--------14----------------|
--------------------------|--------------------------|
--------------------------|--------------------------|


                                                          
---------------------------|--------------------------------|
------15-------------------|--------------------------------|
--------------13h14----12--|--12----------10-12-12-12-12-14-|
---------------------------|--------------------------------|
---------------------------|--------------------------------|
---------------------------|--------------------------------|


                                                              
----------------------------------|-----------------------------|
----------------------------------|-------------------10----10--|
--10-----10-----------------------|------------9--10------------|
------12-----12-------------------|--------12-------------------|
--------------------11p10--8--10--|----12-----------------------|
----------------------------------|-----------------------------|


                                                              
--10------------12------------|--10------12--------------12b-|
------10----10------10----10--|------10------10----10--------|
------------------------------|------------------------------|
------------------------------|------------------------------|
------------------------------|------------------------------|
------------------------------|------------------------------|


                                                  
--------12b-----12b---|----12b-----12r---10------|
----------------------|----------------------13b-|
----------------------|--------------------------|
----------------------|--------------------------|
----------------------|--------------------------|
----------------------|--------------------------|


                                     
----10------------------------------|
-------13-10------------------------|
-------------12-10----12-10---------|
-------------------12-------12------|
------------------------------------|
------------------------------------|


                                         
----------------------------------------|
----------------------------------------|
----10-12-12~-10-12-12~-10-12-12~-10-12-|
----------------------------------------|
----------------------------------------|
----------------------------------------|


                                                                         
-----------------------10------------------|--------------13b------13b--|
--------------------------13-10/9----------|----------------------------|
--12~-10-12-12~-10-12b------------12-10----|--12-10---------------------|
----------------------------------------12-|--------12------------------|
-------------------------------------------|----------------------------|
-------------------------------------------|----------------------------|


                                                
------13b-----13b-----|--13b-----13b-----13b---|
----------------------|------------------------|
----------------------|------------------------|
----------------------|------------------------|
----------------------|------------------------|
----------------------|------------------------|


                                     
--13r---10--------10----------------|
------------13b------13-10----------|
---------------------------12-10----|
---------------------------------12-|
------------------------------------|
------------------------------------|


                                        
--------13-12-----13--12------13p12p10-|
---------------------------------------|
--13/14--------14----------------------|
---------------------------------------|
---------------------------------------|
---------------------------------------|


                                                       
--13--13p12p10-13--13p12p10-13--13p12p10-13--13p12p10-|
------------------------------------------------------|
------------------------------------------------------|
------------------------------------------------------|
------------------------------------------------------|
------------------------------------------------------|


                                                                           
--13-12h13p12p10-13-12h13p12p10-13-12h13p12p10-13-12h13p12p10-13-12h13p12p10
---------------------------------------------------------------------------
---------------------------------------------------------------------------
---------------------------------------------------------------------------
---------------------------------------------------------------------------
---------------------------------------------------------------------------


                                                                     
-13-|-12h13p12p10-13-12h13p12p10-13-12h13p12p10-13--12--10--13-12-13-10-|
----|-------------------------------------------------------------------|
----|-------------------------------------------------------------------|
----|-------------------------------------------------------------------|
----|-------------------------------------------------------------------|
----|-------------------------------------------------------------------|


                                                                  
--13--12--15/-17------15/-17----|--17--18--17--------20--18--17--|
--------------------------------|--------------20----------------|
--------------------------------|--------------------------------|
--------------------------------|--------------------------------|
--------------------------------|--------------------------------|
--------------------------------|--------------------------------|


                                                        
----17----17----18--17/---|----12--12--12----15----10--|
--------------------------|----------------------------|
--------------------------|----------------------------|
--------------------------|----------------------------|
--------------------------|----------------------------|
--------------------------|----------------------------|


                             
----13--------12------10----|
----------14------12--------|
----------------------------|
----------------------------|
----------------------------|
----------------------------|


                                                             
---13-13p12p10-13-13-13p12p10-13-13-13p12p10-13-13-13p12p10-|
------------------------------------------------------------|
------------------------------------------------------------|
------------------------------------------------------------|
------------------------------------------------------------|
------------------------------------------------------------|


                                                                      
--13-12h13p12-10-13-12h13p12-10-13-13p12p10-13-13p12p10-13-13p12p10--|
---------------------------------------------------------------------|
---------------------------------------------------------------------|
---------------------------------------------------------------------|
---------------------------------------------------------------------|
---------------------------------------------------------------------|


                                                      
--------------------------|--------------------------|
--------------------------|--------------------------|
--7--10----9----12----10--|----14----12----15----14--|
--------------------------|--------------------------|
--5--8-----7----10----8---|----12----10----13----12--|
--------------------------|--------------------------|


                                                                         
--------------------------|------------------------|--------------------|
--------------------------|------------------13----|--15----------------|
----19----18----21----19--|------14----15----------|--------------------|
--------------------------|------------------------|--------------------|
----17----16----19----17--|------------------------|--------------------|
--------------------------|------------------------|--------------------|


                                                  
----------13--13-12-------|----------------------|
----------------------15b-|------------------13--|
--------------------------|----------------------|
--------------------------|----------------------|
--------------------------|----------------------|
--------------------------|----------------------|


                                                  
------------------------------|------------------|
------13h15-13----------------|------------------|
--14----------------14r---12--|------------------|
------------------------------|------------------|
------------------------------|------------------|
------------------------------|------------------|


                                                    
------------------------------|--------------------|
------------------------------|--------------------|
--------------12---14--14h15--|--14----------------|
----14---15-------------------|--------------------|
------------------------------|--------------------|
------------------------------|--------------------|


                                              
------------------------|--------------------|
------------------13----|--15----------------|
----14------15----------|--------------------|
------------------------|--------------------|
------------------------|--------------------|
------------------------|--------------------|


                                                      
----15--13--12----13--15--------|--------------------|
---------------------------15b--|-----------------13-|
--------------------------------|--------------------|
--------------------------------|--------------------|
--------------------------------|--------------------|
--------------------------------|--------------------|


                                                                 
-------------------------------------------|--------------------|
--13------13h15--13h15--13-----------------|--------------------|
------14----------------------12h14p12-----|--------------------|
----------------------------------------15-|--14----------------|
-------------------------------------------|--------------------|
-------------------------------------------|--------------------|


                                                      
--------------------------------|--------------------|
--------------------------------|--------------------|
------------------12------------|--------------------|
------14----15--------15---11---|--12----------------|
--------------------------------|--------------------|
--------------------------------|--------------------|


                                                        
----------------------------|--------------------------|
--------------15----13------|--------------------------|
---------14-------------15--|--14r---14r---14r---14r---|
----12----------------------|--------------------------|
----------------------------|--------------------------|
----------------------------|--------------------------|


                                                      
------------------------------|----------------------|
--------------15--13----------|----------------------|
--14r---14r-----------15--14r-|------14p12-----------|
------------------------------|----------------------|
------------------------------|----------------------|
------------------------------|----------------------|


                                                    
------------------------------|--------------------|
------------------------------|--------------------|
--------------12--------------|--14----------------|
----14---15-----------15--14--|--------------------|
------------------------------|--------------------|
------------------------------|--------------------|


                                                  
----------------------------|--------------------|
--------------13------------|--15----------------|
----14---15----------15-14--|--------------------|
----------------------------|--------------------|
----------------------------|--------------------|
----------------------------|--------------------|


                                                            
-------------------------------|---------------------------------|
-------------------------------|---------------------------------|
----12---14---14h15---14---12--|--14--------12--12h14---12-------|
-------------------------------|-------15--------------------15--|
-------------------------------|---------------------------------|
-------------------------------|---------------------------------|


                                                    
------------------------------|--------------------|
------------------------------|--------------------|
--12------------12------------|--------------------|
-------14---15-------15---11--|--12----------------|
------------------------------|--------------------|
------------------------------|--------------------|


                                                                  
----------------------------------|------------------------------------|
----------------------------------|------------------------------------|
----12---12h14--15----14----12----|--12h14--------12--12h14---12-------|
----------------------------------|----------15--------------------15--|
----------------------------------|------------------------------------|
----------------------------------|------------------------------------|


                                                        
----------------------------------|--------------------|
----------------------------------|--------------------|
--12----------------12------------|--------------------|
--------14----15---------15---11--|--12----------------|
----------------------------------|--------------------|
----------------------------------|--------------------|


                                                              
------------------------------|------------------------------------|
------------------------------|------------------------------------|
----12---12h14--15---14---12--|--12h14--------12--12h14---12-------|
------------------------------|----------15--------------------15--|
------------------------------|------------------------------------|
------------------------------|------------------------------------|


                                                         
----------------------------------|--------------------||
----------------------------------|--------------------||
--12----------------12------------|--------------------||
--------14----15---------15---11--|--12----------------||
----------------------------------|--------------------||
----------------------------------|--------------------||


h - hammer on
p - pull off
b - bend
r - bend and release
/ - slide
~ - vibratto 
comments
print report bad tab
1 comment total.
0 reply
FernandO_o wrote on August 7 2010, 11:18 pm

Hey great tab!, but your missing another part before it starts to fade out...

I want to post or [tab]
guest
You may want to rate the tab now too:
select rating
Please do not post tabs as comments. Select "correction" instead!