Oops, an error
Loading. Please wait.

Who The Fuck Taught You Snaps Tab

ver2
ver2

Whole song

Interactive

More versions @911Tabs.com
437 views 3 this week
no commentswrite comment
1 2 3 4 5
please rate
Autoscroll
+/-
esc
set tempo
stop
Contributor
Difficulty
Tuning
novice
B F# B E G# C#
WARNING: You are trying to view
                                    content from Ultimate-Guitar.com
                                    in an unauthorized application,
                                    which is prohibited.

                                    Please use an official Ultimate
                                    Guitar Tabs application for iPhone,
                                    iPad or Android to access legitimate
                                    chords, guitar, bass, and drum tabs
                                    from Ultimate-Guitar.com database.

                                    Type "ultimate guitar tabs" in Apple
                                    App Store's or Android Market's
                                    search to find the application.
                         WHO THE FUCK TAUGHT YOU SNAPS?
                            As recorded by Carpathian
                      (From the 2006 Album NOTHING TO LOSE)

Words by Martin Kirby

Music by Carpathian
Transcribed by Patsyxcore

Gtr I (B Gb B E Ab Db) - 'Left'
Gtr II (B Gb B E Ab Db) - 'Right'
Gtr III (B Gb B E Ab Db) - 'Center'
Gtr IV (B Gb B E Ab Db) - 'Center'

   "Oh!"
    Q=138
    Eb5D5 N.C.              Eb5D5     N.D5N.C.Eb5D5
   4/4
    Gtr I
    E. E. S S E S S E S S   E. E. E E E E E
||------------------------|-----------------|
||o-----------------------|-----------------|
||------------------------|-----------------|
||------------------------|-----------------|
||o-1--0------------------|-1--0--0-0---0---|
||--1--0--0-0-0-0-0-0-0-0-|-1--0--0-0-0-0-0-|
|
|   Gtr II
|   E. E. S S E S S E S S   E. E. E E E E E
||------------------------|-----------------|
||o-----------------------|-----------------|
||------------------------|-----------------|
||------------------------|-----------------|
||o-1--0------------------|-1--0--0-0---0---|
||--1--0--0-0-0-0-0-0-0-0-|-1--0--0-0-0-0-0-|


        N.C.              Eb    N.Dm    N.C.
  E. E. S S E S S E S S   E. E. E E. E. E
|-----------------------|------------------||
|-----------------------|-----------------o||
|-----------------------|------------------||
|-----------------------|-5--5----3--3-----||
|-1--0------------------|-6--6----5--5----o||
|-1--0--0-0-0-0-0-0-0-0-|-------0-------0--||
|
| E. E. S S E S S E S S   E. E. E E. E. E
|-----------------------|------------------||
|-----------------------|-----------------o||
|-----------------------|------------------||
|-----------------------|-5--5----3--3-----||
|-1--0------------------|-6--6----5--5----o||
|-1--0--0-0-0-0-0-0-0-0-|-------0-------0--||


 Intro Breakdown
  D5
  E. E S E E S E S E   E. E S E E S E S E
|--------------------|--------------------|
|--------------------|--------------------|
|--------------------|--------------------|
|--------------------|--------------------|
|-0--0---0-0-0-0-0-0-|-0--0---0-0-0-0-0-0-|
|-0--0---0-0-0-0-0-0-|-0--0---0-0-0-0-0-0-|
|
| E. E S E E S E S E   E. E S E E S E S E
|--------------------|--------------------|
|--------------------|--------------------|
|--------------------|--------------------|
|--------------------|--------------------|
|-0--0---0-0-0-0-0-0-|-0--0---0-0-0-0-0-0-|
|-0--0---0-0-0-0-0-0-|-0--0---0-0-0-0-0-0-|


                       Eb    N.Dm    N.C.
  E. E S E E S E S E   E. E. E E. E. E
|--------------------|-----------------|
|--------------------|-----------------|
|--------------------|-----------------|
|--------------------|-5--5----3--3----|
|-0--0---0-0-0-0-0-0-|-6--6----5--5----|
|-0--0---0-0-0-0-0-0-|-------0-------0-|
|
| E. E S E E S E S E   E. E. E E. E. E
|--------------------|-----------------|
|--------------------|-----------------|
|--------------------|-----------------|
|--------------------|-5--5----3--3----|
|-0--0---0-0-0-0-0-0-|-6--6----5--5----|
|-0--0---0-0-0-0-0-0-|-------0-------0-|


  D5
  E. E S E E S E S E   E. E S E E S E S E
|--------------------|--------------------|
|--------------------|--------------------|
|--------------------|--------------------|
|--------------------|--------------------|
|-0--0---0-0-0-0-0-0-|-0--0---0-0-0-0-0-0-|
|-0--0---0-0-0-0-0-0-|-0--0---0-0-0-0-0-0-|
|
| E. E S E E S E S E   E. E S E E S E S E
|--------------------|--------------------|
|--------------------|--------------------|
|--------------------|--------------------|
|--------------------|--------------------|
|-0--0---0-0-0-0-0-0-|-0--0---0-0-0-0-0-0-|
|-0--0---0-0-0-0-0-0-|-0--0---0-0-0-0-0-0-|


                       Eb    N.Dm
  E. E S E E S E S E   E. E. E E. E. E
|--------------------|-----------------|
|--------------------|-----------------|
|--------------------|-----------------|
|--------------------|-5--5----3--3--3-|
|-0--0---0-0-0-0-0-0-|-6--6----5--5--5-|
|-0--0---0-0-0-0-0-0-|-------0---------|
|
| E. E S E E S E S E   E. E. E E. E. E
|--------------------|-----------------|
|--------------------|-----------------|
|--------------------|-----------------|
|--------------------|-5--5----3--3--3-|
|-0--0---0-0-0-0-0-0-|-6--6----5--5--5-|
|-0--0---0-0-0-0-0-0-|-------0---------|


 "How could something..."
  Q=189
  $
  D5   N.C.             D5   N.C.
  Q  E  E  E  E  E  E   Q  E  E  E  E  E  E
|---------------------|---------------------|
|---------------------|---------------------|
|------10-10-10-10-10-|------10-10-10-10-10-|
|-0-----x--x--x--x--x-|-0-----x--x--x--x--x-|
|-0--0--8--8--8--8--8-|-0--0--8--8--8--8--8-|
|-0--0----------------|-0--0----------------|
|
| Q  E  E  E  E  E  E   Q  E  E  E  E  E  E
|---------------------|---------------------|
|---------------------|---------------------|
|------10-10-10-10-10-|------10-10-10-10-10-|
|-0-----x--x--x--x--x-|-0-----x--x--x--x--x-|
|-0--0--8--8--8--8--8-|-0--0--8--8--8--8--8-|
|-0--0----------------|-0--0----------------|


  Bb5  N.C.
  Q  E  E  E  E  E  E    E E E E E E E E
|---------------------|-------------------|
|---------------------|-------------------|
|------10-10-10-10-10-|-10-9-9-9-9-5-5-5--|
|-8-----x--x--x--x--x-|--x-x-x-x-x-x-x-x--|
|-8--8--8--8--8--8--8-|--8-7-7-7-7-3-3-3--|
|-8--8----------------|-------------------|
|
| Q  E  E  E  E  E  E    E E E E E E E E
|---------------------|-------------------|
|---------------------|-------------------|
|------10-10-10-10-10-|-10-9-9-9-9-5-5-5--|
|-8-----x--x--x--x--x-|--x-x-x-x-x-x-x-x--|
|-8--8--8--8--8--8--8-|--8-7-7-7-7-3-3-3--|
|-8--8----------------|-------------------|


  D5   N.C.             D5   N.C.
  Q  E  E  E  E  E  E   Q  E  E  E  E  E  E
|---------------------|---------------------|
|---------------------|---------------------|
|------10-10-10-10-10-|------10-10-10-10-10-|
|-0-----x--x--x--x--x-|-0-----x--x--x--x--x-|
|-0--0--8--8--8--8--8-|-0--0--8--8--8--8--8-|
|-0--0----------------|-0--0----------------|
|
| Q  E  E  E  E  E  E   Q  E  E  E  E  E  E
|---------------------|---------------------|
|---------------------|---------------------|
|------10-10-10-10-10-|------10-10-10-10-10-|
|-0-----x--x--x--x--x-|-0-----x--x--x--x--x-|
|-0--0--8--8--8--8--8-|-0--0--8--8--8--8--8-|
|-0--0----------------|-0--0----------------|


  Bb5  N.C.
  Q  E  E  E  E  E  E    E  E  E  E  E E E E
|---------------------|-----------------------|
|---------------------|-----------------------|
|------10-10-10-10-10-|-10--9--9--9--9-5-5-5--|
|-8-----x--x--x--x--x-|--x--x--x--x--x-x-x-x--|
|-8--8--8--8--8--8--8-|--8--7--7--7--7-3-3-3--|
|-8--8----------------|-----------------------|
|
| Q  E  E  E  E  E  E    E  E  E  E  E E E E
|---------------------|-----------------------|
|---------------------|-----------------------|
|------10-10-10-10-10-|-10-12-12-12-12-9-9-9--|
|-8-----x--x--x--x--x-|--x--x--x--x--x-x-x-x--|
|-8--8--8--8--8--8--8-|--8-10-10-10-10-7-7-7--|
|-8--8----------------|-----------------------|


  D5   N.C.             D5   N.C.
  Q  E  E  E  E  E  E   Q  E  E  E  E  E  E
|---------------------|---------------------|
|---------------------|---------------------|
|------10-10-10-10-10-|------10-10-10-10-10-|
|-0-----x--x--x--x--x-|-0-----x--x--x--x--x-|
|-0--0--8--8--8--8--8-|-0--0--8--8--8--8--8-|
|-0--0----------------|-0--0----------------|
|
| Q  E  E  E  E  E  E   Q  E  E  E  E  E  E
|---------------------|---------------------|
|---------------------|---------------------|
|-------7--7--7--7--7-|-------7--7--7--7--7-|
|-0-----x--x--x--x--x-|-0-----x--x--x--x--x-|
|-0--0--5--5--5--5--5-|-0--0--5--5--5--5--5-|
|-0--0----------------|-0--0----------------|


  Bb5  N.C.
  Q  E  E  E  E  E  E    E  E  E  E  E E E E
|---------------------|-----------------------|
|---------------------|-----------------------|
|------10-10-10-10-10-|-10--9--9--9--9-5-5-5--|
|-8-----x--x--x--x--x-|--x--x--x--x--x-x-x-x--|
|-8--8--8--8--8--8--8-|--8--7--7--7--7-3-3-3--|
|-8--8----------------|-----------------------|
|
| Q  E  E  E  E  E  E    E  E  E  E  E E E E
|---------------------|-----------------------|
|---------------------|-----------------------|
|-------7--7--7--7--7-|--7-12-12-12-12-9-9-9--|
|-8-----x--x--x--x--x-|--x--x--x--x--x-x-x-x--|
|-8--8--5--5--5--5--5-|--5-10-10-10-10-7-7-7--|
|-8--8----------------|-----------------------|


  D5   N.C.             D5   N.C.
  Q  E  E  E  E  E  E   Q  E  E  E  E  E  E
|---------------------|---------------------|
|---------------------|---------------------|
|------10-10-10-10-10-|------10-10-10-10-10-|
|-0-----x--x--x--x--x-|-0-----x--x--x--x--x-|
|-0--0--8--8--8--8--8-|-0--0--8--8--8--8--8-|
|-0--0----------------|-0--0----------------|
|
| Q  E  E  E  E  E  E   Q  E  E  E  E  E  E
|---------------------|---------------------|
|---------------------|---------------------|
|-------7--7--7--7--7-|-------7--7--7--7--7-|
|-0-----x--x--x--x--x-|-0-----x--x--x--x--x-|
|-0--0--5--5--5--5--5-|-0--0--5--5--5--5--5-|
|-0--0----------------|-0--0----------------|


                                    To Coda
  Bb5  N.C.
  Q  E  E  E  E  E  E    E  E  E  E  E E E E
|---------------------|-----------------------|
|---------------------|-----------------------|
|------10-10-10-10-10-|-10--9--9--9--9-5-5-5--|
|-8-----x--x--x--x--x-|--x--x--x--x--x-x-x-x--|
|-8--8--8--8--8--8--8-|--8--7--7--7--7-3-3-3--|
|-8--8----------------|-----------------------|
|
| Q  E  E  E  E  E  E    E  E  E  E  E E E E
|---------------------|-----------------------|
|---------------------|-----------------------|
|-------7--7--7--7--7-|--7-12-12-12-12-9-9-9--|
|-8-----x--x--x--x--x-|--x--x--x--x--x-x-x-x--|
|-8--8--5--5--5--5--5-|--5-10-10-10-10-7-7-7--|
|-8--8----------------|-----------------------|


 "I'll tear them..."
  D5   EbN.D5 N.C.  EbN.D5 F#F5Eb5 D5   EbN.D5 N.C.  EbN.D5 N.C.
  Q  E E E Q  E   E E E Q  E E E   Q  E E E Q  E   E E E Q  E E E
|---------------|----------------|---------------|-----------------|
|---------------|----------------|---------------|-----------------|
|---------------|----------------|---------------|-----------------|
|-0-------------|----------------|-0-------------|------------3----|
|-0--0-1---0----|---1---0--4-3-1-|-0--0-1---0----|---1---0------5--|
|-0--0-1-0-0--0-|-0-1-0-0--4-3-1-|-0--0-1-0-0--0-|-0-1-0-0--0------|
|
| Q  E E E Q  E   E E E Q  E E E   Q  E E E Q  E   E E E Q  E E E
|---------------|----------------|---------------|-----------------|
|---------------|----------------|---------------|-----------------|
|---------------|----------------|---------------|-----------------|
|-0-------------|----------------|-0-------------|------------3----|
|-0--0-1---0----|---1---0--4-3-1-|-0--0-1---0----|---1---0------5--|
|-0--0-1-0-0--0-|-0-1-0-0--4-3-1-|-0--0-1-0-0--0-|-0-1-0-0--0------|


  D5   EbN.D5 N.C.  EbN.D5 F#F5Eb5 D5   EbN.D5 N.C.  Eb     N.C.
  Q  E E E Q  E   E E E Q  E E E   Q  E E E Q  E   E E E Q  E E E
|---------------|----------------|---------------|-----------------|
|---------------|----------------|---------------|-----------------|
|---------------|----------------|---------------|-----------------|
|-0-------------|----------------|-0-------------|---5-5------3----|
|-0--0-1---0----|---1---0--4-3-1-|-0--0-1---0----|---6-6--------5--|
|-0--0-1-0-0--0-|-0-1-0-0--4-3-1-|-0--0-1-0-0--0-|-0--------0------|
|
| Q  E E E Q  E   E E E Q  E E E   Q  E E E Q  E   E E E Q  E E E
|---------------|----------------|---------------|-----------------|
|---------------|----------------|---------------|-----------------|
|---------------|----------------|---------------|-----------------|
|-0-------------|----------------|-0-------------|---5-5------3----|
|-0--0-1---0----|---1---0--4-3-1-|-0--0-1---0----|---6-6--------5--|
|-0--0-1-0-0--0-|-0-1-0-0--4-3-1-|-0--0-1-0-0--0-|-0--------0------|


  D5   EbN.D5 N.C.  EbN.D5 F#F5Eb5 D5   EbN.D5 N.C.  EbN.D5 N.C.
  Q  E E E Q  E   E E E Q  E E E   Q  E E E Q  E   E E E Q  E E E
|---------------|----------------|---------------|-----------------|
|---------------|----------------|---------------|-----------------|
|---------------|----------------|---------------|-----------------|
|-0-------------|----------------|-0-------------|------------3----|
|-0--0-1---0----|---1---0--4-3-1-|-0--0-1---0----|---1---0------5--|
|-0--0-1-0-0--0-|-0-1-0-0--4-3-1-|-0--0-1-0-0--0-|-0-1-0-0--0------|
|
| Q  E E E Q  E   E E E Q  E E E   Q  E E E Q  E   E E E Q  E E E
|---------------|----------------|---------------|-----------------|
|---------------|----------------|---------------|-----------------|
|---------------|----------------|---------------|-----------------|
|-0-------------|----------------|-0-------------|------------3----|
|-0--0-1---0----|---1---0--4-3-1-|-0--0-1---0----|---1---0------5--|
|-0--0-1-0-0--0-|-0-1-0-0--4-3-1-|-0--0-1-0-0--0-|-0-1-0-0--0------|


  D5   EbN.D5 N.C.  EbN.D5 F#F5Eb5 D5   EbN.D5 N.C.  Eb      Dm
  Q  E E E Q  E   E E E Q  E E E   Q  E E E Q  E   E E E E E E E E
|---------------|----------------|---------------|------------------|
|---------------|----------------|---------------|------------------|
|---------------|----------------|---------------|------------------|
|-0-------------|----------------|-0-------------|---5-5-5-5-3-3-3--|
|-0--0-1---0----|---1---0--4-3-1-|-0--0-1---0----|---6-6-6-6-5-5-5--|
|-0--0-1-0-0--0-|-0-1-0-0--4-3-1-|-0--0-1-0-0--0-|-0----------------|
|
| Q  E E E Q  E   E E E Q  E E E   Q  E E E Q  E   E E E E E E E E
|---------------|----------------|---------------|------------------|
|---------------|----------------|---------------|------------------|
|---------------|----------------|---------------|------------------|
|-0-------------|----------------|-0-------------|---5-5-5-5-3-3-3--|
|-0--0-1---0----|---1---0--4-3-1-|-0--0-1---0----|---6-6-6-6-5-5-5--|
|-0--0-1-0-0--0-|-0-1-0-0--4-3-1-|-0--0-1-0-0--0-|-0----------------|


 "So tell me..."
  F5/BBbF5/Bb            F/A
   Q  E  E  E  E  E  E    Q  E  E  E  E  E  E
|----------------------|----------------------|
|----------------------|----------------------|
|-------10-10-10-10-10-|-------10-10-10-10-10-|
|-10----10-10-10-10-10-|-10----10-10-10-10-10-|
|--8--8--8--8--8--8--8-|--8--8--8--8--8--8--8-|
|--8--8--8--8--8--8--8-|--7--7--7--7--7--7--7-|
|
|  Q  E  E  E  E  E  E    Q  E  E  E  E  E  E
|----------------------|----------------------|
|----------------------|----------------------|
|-------10-10-10-10-10-|-------10-10-10-10-10-|
|-10----10-10-10-10-10-|-10----10-10-10-10-10-|
|--8--8--8--8--8--8--8-|--8--8--8--8--8--8--8-|
|--8--8--8--8--8--8--8-|--7--7--7--7--7--7--7-|


  D5 N.C.
  Q  E E E  E E  E   E  E E  E E  E  E  E
|------------------|-----------------------|
|------------------|-----------------------|
|------------------|-----------------------|
|------------------|-----------------------|
|-0----8---10---12-|---13---12---10-10-10--|
|-0--0---0----0----|-0----0----0-----------|
|
| Q  E E E  E E  E   E  E E  E E  E  E  E
|------------------|-----------------------|
|------------------|-----------------------|
|------------------|-----------------------|
|------------------|-----------------------|
|-0----5----7----8-|---10----8----7--7--7--|
|-0--0---0----0----|-0----0----0-----------|


  F5/Bb                  F/A
   Q  E  E  E  E  E  E    Q  E  E  E  E  E  E
|----------------------|----------------------|
|----------------------|----------------------|
|-------10-10-10-10-10-|-------10-10-10-10-10-|
|-10----10-10-10-10-10-|-10----10-10-10-10-10-|
|--8--8--8--8--8--8--8-|--8--8--8--8--8--8--8-|
|--8--8--8--8--8--8--8-|--7--7--7--7--7--7--7-|
|
|  Q  E  E  E  E  E  E    Q  E  E  E  E  E  E
|----------------------|----------------------|
|----------------------|----------------------|
|-------10-10-10-10-10-|-------10-10-10-10-10-|
|-10----10-10-10-10-10-|-10----10-10-10-10-10-|
|--8--8--8--8--8--8--8-|--8--8--8--8--8--8--8-|
|--8--8--8--8--8--8--8-|--7--7--7--7--7--7--7-|


  D5
  Q  E S S E S S E S S   E S S E S S E E E E
|----------------------|----------------------|
|----------------------|----------------------|
|----------------------|----------------------|
|-0--------------------|----------------------|
|-0--0-0-0-0-0-0-0-0-0-|-0-0-0-0-0-0-0-0-0-0--|
|-0--0-0-0-0-0-0-0-0-0-|-0-0-0-0-0-0-0-0-0-0--|
|
| Q  E S S E S S E S S   E S S E S S E E E E
|----------------------|----------------------|
|----------------------|----------------------|
|----------------------|----------------------|
|-0--------------------|----------------------|
|-0--0-0-0-0-0-0-0-0-0-|-0-0-0-0-0-0-0-0-0-0--|
|-0--0-0-0-0-0-0-0-0-0-|-0-0-0-0-0-0-0-0-0-0--|


  F5/BBbF5/Bb            F/A
   Q  E  E  E  E  E  E    Q  E  E  E  E  E  E
|----------------------|----------------------|
|----------------------|----------------------|
|-------10-10-10-10-10-|-------10-10-10-10-10-|
|-10----10-10-10-10-10-|-10----10-10-10-10-10-|
|--8--8--8--8--8--8--8-|--8--8--8--8--8--8--8-|
|--8--8--8--8--8--8--8-|--7--7--7--7--7--7--7-|
|
|  Q  E  E  E  E  E  E    Q  E  E  E  E  E  E
|----------------------|----------------------|
|----------------------|----------------------|
|-------10-10-10-10-10-|-------10-10-10-10-10-|
|-10----10-10-10-10-10-|-10----10-10-10-10-10-|
|--8--8--8--8--8--8--8-|--8--8--8--8--8--8--8-|
|--8--8--8--8--8--8--8-|--7--7--7--7--7--7--7-|


  D5 N.C.
  Q  E E E  E E  E   E  E E  E E  E  E  E
|------------------|-----------------------|
|------------------|-----------------------|
|------------------|-----------------------|
|------------------|-----------------------|
|-0----8---10---12-|---13---12---10-10-10--|
|-0--0---0----0----|-0----0----0-----------|
|
| Q  E E E  E E  E   E  E E  E E  E  E  E
|------------------|-----------------------|
|------------------|-----------------------|
|------------------|-----------------------|
|------------------|-----------------------|
|-0----5----7----8-|---10----8----7--7--7--|
|-0--0---0----0----|-0----0----0-----------|


                               D.S. al Coda
  F5/BBbF5/Bb            F/A
   Q  E  E  E  E  E  E    Q  E  E  E  E  E  E
|----------------------|----------------------|
|----------------------|----------------------|
|-------10-10-10-10-10-|-------10-10-10-10-10-|
|-10----10-10-10-10-10-|-10----10-10-10-10-10-|
|--8--8--8--8--8--8--8-|--8--8--8--8--8--8--8-|
|--8--8--8--8--8--8--8-|--7--7--7--7--7--7--7-|
|
|  Q  E  E  E  E  E  E    Q  E  E  E  E  E  E
|----------------------|----------------------|
|----------------------|----------------------|
|-------10-10-10-10-10-|-------10-10-10-10-10-|
|-10----10-10-10-10-10-|-10----10-10-10-10-10-|
|--8--8--8--8--8--8--8-|--8--8--8--8--8--8--8-|
|--8--8--8--8--8--8--8-|--7--7--7--7--7--7--7-|


 "So follow, please..."
  &
  Bb5              G5               D5
  Gtr III
  Q  E E E E E E   Q  E E E E E E   Q  E E E E E E   E E E E E E E E
|----------------|----------------|----------------|------------------|
|----------------|----------------|----------------|------------------|
|----------------|----------------|----------------|------------------|
|-8--8-8-8-8-8-8-|-5--5-5-5-5-5-5-|-0--0-0-0-0-0-0-|-0-0-0-0-0-0-0-0--|
|-8--8-8-8-8-8-8-|-5--5-5-5-5-5-5-|-0--0-0-0-0-0-0-|-0-0-0-0-0-0-0-0--|
|-8--8-8-8-8-8-8-|-5--5-5-5-5-5-5-|-0--0-0-0-0-0-0-|-0-0-0-0-0-0-0-0--|
|
| Gtr IV
| Q  E E E E E E   Q  E E E E E E   Q  E E E E E E   E E E E E E E E
|----------------|----------------|----------------|------------------|
|----------------|----------------|----------------|------------------|
|----------------|----------------|----------------|------------------|
|-8--8-8-8-8-8-8-|-5--5-5-5-5-5-5-|-0--0-0-0-0-0-0-|-0-0-0-0-0-0-0-0--|
|-8--8-8-8-8-8-8-|-5--5-5-5-5-5-5-|-0--0-0-0-0-0-0-|-0-0-0-0-0-0-0-0--|
|-8--8-8-8-8-8-8-|-5--5-5-5-5-5-5-|-0--0-0-0-0-0-0-|-0-0-0-0-0-0-0-0--|


  Bb5              G5
  Q  E E E E E E   Q  E E E E E E
|----------------|----------------|
|----------------|----------------|
|----------------|----------------|
|-8--8-8-8-8-8-8-|-5--5-5-5-5-5-5-|
|-8--8-8-8-8-8-8-|-5--5-5-5-5-5-5-|
|-8--8-8-8-8-8-8-|-5--5-5-5-5-5-5-|
|
| Q  E E E E E E   Q  E E E E E E
|----------------|----------------|
|----------------|----------------|
|----------------|----------------|
|-8--8-8-8-8-8-8-|-5--5-5-5-5-5-5-|
|-8--8-8-8-8-8-8-|-5--5-5-5-5-5-5-|
|-8--8-8-8-8-8-8-|-5--5-5-5-5-5-5-|


  D5
  Q   E  E E E E  E    E  E  E  E  E  E  E E
|-------------------|-------------------------|
|-------------------|-------------------------|
|-------------------|-------------------------|
|-0---0--0-0-0-0--0-|--0--0--0--0--0--0--0-0--|
|-0---0--0-0-0-0--0-|--0--0--0--0--0--0--0-0--|
|-0---0--0-0-0-0--0-|--0--0--0--0--0--0--0-0--|
|
| Q  +E  E E E E  E    E  E  E  E  E  E  E E
|-------------------|-------------------------|
|-------------------|-------------------------|
|-7--(7)s9-9-9-9s10-|-10-10-10s12-12-12-10-9--|
|-x------x-x-x-x--x-|--x--x--x--x--x--x--x-x--|
|-5--(5)s7-7-7-7s=8-|--8--8--8s10-10-10--8-7--|
|-------------------|-------------------------|


  Bb5                     G5               D5
   Q   E  E  E  E  E  E   Q  E E E E E E   Q  Q  E E E E   E E E E E E E E
|-----------------------|----------------|---------------|-----------------|
|-----------------------|----------------|---------------|-----------------|
|-----------------------|----------------|---------------|-----------------|
|--8---8--8--8--8--8--8-|-5--5-5-5-5-5-5-|----0--0-0-0-0-|-0-0-0-0-0-0-0-0-|
|--8---8--8--8--8--8--8-|-5--5-5-5-5-5-5-|----0--0-0-0-0-|-0-0-0-0-0-0-0-0-|
|--8---8--8--8--8--8--8-|-5--5-5-5-5-5-5-|----0--0-0-0-0-|-0-0-0-0-0-0-0-0-|
|
|  Q   E  E  E  E  E  E   Q  E E E E E E   Q  Q  E E E E   E E E E E E E E
|-----------------------|----------------|---------------|-----------------|
|-----------------------|----------------|---------------|-----------------|
|-10--10-10-10-10-10-10-|-9--9-9-9-9-9-9-|---------------|-----------------|
|--x---x--x--x--x--x--x-|-x--x-x-x-x-x-x-|----0--0-0-0-0-|-0-0-0-0-0-0-0-0-|
|--8---8--8--8--8--8--8-|-7--7-7-7-7-7-7-|----0--0-0-0-0-|-0-0-0-0-0-0-0-0-|
|-----------------------|----------------|----0--0-0-0-0-|-0-0-0-0-0-0-0-0-|


  Bb5              G5
  Q  E E E E E E   Q  E E E E E E
|----------------|----------------|
|----------------|----------------|
|----------------|----------------|
|-8--8-8-8-8-8-8-|-5--5-5-5-5-5-5-|
|-8--8-8-8-8-8-8-|-5--5-5-5-5-5-5-|
|-8--8-8-8-8-8-8-|-5--5-5-5-5-5-5-|
|
| Q  E E E E E E   Q  E E E E E E
|----------------|----------------|
|----------------|----------------|
|----------------|----------------|
|-8--8-8-8-8-8-8-|-5--5-5-5-5-5-5-|
|-8--8-8-8-8-8-8-|-5--5-5-5-5-5-5-|
|-8--8-8-8-8-8-8-|-5--5-5-5-5-5-5-|


   "Set yourself free."
    Eb5D5
    Q  E S S E Q  S S   E Q  S S E E E E
||--------------------|------------------|
||o-------------------|------------------|
||--------------------|------------------|
||--1-----------------|------------------|
||o-1--0-0-0-0-0--0-0-|-0-0--0-0-0-0-0-0-|
||--1--0-0-0-0-0--0-0-|-0-0--0-0-0-0-0-0-|
|
|   Q  E S S E Q  S S   E Q  S S E E E E
||--------------------|------------------|
||o-------------------|------------------|
||--------------------|------------------|
||--1-----------------|------------------|
||o-1--0-0-0-0-0--0-0-|-0-0--0-0-0-0-0-0-|
||--1--0-0-0-0-0--0-0-|-0-0--0-0-0-0-0-0-|


  Eb5D5
  Q  E S S E Q  S S   E Q  S S E E E E
|-------------------|-------------------|
|-------------------|-------------------|
|-------------------|-------------------|
|-1-----------------|-------------------|
|-1--0-0-0-0-0--0-0-|-0-0--0-0-0-0-0-0--|
|-1--0-0-0-0-0--0-0-|-0-0--0-0-0-0-0-0--|
|
| Q  E S S E Q  S S   E Q  S S E E E E
|-------------------|-------------------|
|-------------------|-------------------|
|-------------------|-------------------|
|-1-----------------|-------------------|
|-1--0-0-0-0-0--0-0-|-0-0--0-0-0-0-0-0--|
|-1--0-0-0-0-0--0-0-|-0-0--0-0-0-0-0-0--|


  Eb5D5                                  Eb5             F#5
  Q  E S S E Q  S S   E Q  S S E E E E   Q  E Q  E E E   Q  E Q  E E E
|-------------------|------------------|---------------|----------------||
|-------------------|------------------|---------------|---------------o||
|-------------------|------------------|---------------|----------------||
|-1-----------------|------------------|-1--1-1--1-1-1-|-4--4-4--4-4-4--||
|-1--0-0-0-0-0--0-0-|-0-0--0-0-0-0-0-0-|-1--1-1--1-1-1-|-4--4-4--4-4-4-o||
|-1--0-0-0-0-0--0-0-|-0-0--0-0-0-0-0-0-|-1--1-1--1-1-1-|-4--4-4--4-4-4--||
|
| Q  E S S E Q  S S   E Q  S S E E E E   Q  E Q  E E E   Q  E Q  E E E
|-------------------|------------------|---------------|----------------||
|-------------------|------------------|---------------|---------------o||
|-------------------|------------------|---------------|----------------||
|-1-----------------|------------------|-1--1-1--1-1-1-|-4--4-4--4-4-4--||
|-1--0-0-0-0-0--0-0-|-0-0--0-0-0-0-0-0-|-1--1-1--1-1-1-|-4--4-4--4-4-4-o||
|-1--0-0-0-0-0--0-0-|-0-0--0-0-0-0-0-0-|-1--1-1--1-1-1-|-4--4-4--4-4-4--||


Duration Legend
---------------
W - whole; H - half; Q - quarter; E - 8th; S - 16th; T - 32nd; X - 64th; a - acciaccatura
+ - note tied to previous; . - note dotted; .. - note double dotted
Uncapitalized letters represent notes that are staccato (1/2 duration)
Irregular groupings are notated above the duration line
Duration letters will always appear directly above the note/fret number it represents the
duration for.  Duration letters with no fret number below them represent rests.  Multi-
bar rests are notated in the form Wxn, where n is the number of bars to rest for.  Low
melody durations appear below the staff

Tablature Legend
----------------
 h   - hammer-on
 p   - pull-off
 b   - bend
 pb  - pre-bend
 r   - bend release (if no number after the r, then release immediately)
 /\  - slide into or out of (from/to "nowhere")
 s   - legato slide
 S   - shift slide
<n>  - natural harmonic
[n]  - artificial harmonic
n(n) - tapped harmonic
 ~   - vibrato
 tr  - trill
 T   - tap
 TP  - trem. picking
 PM  - palm muting
\n/  - tremolo bar dip; n = amount to dip
 \n  - tremolo bar down
 n/  - tremolo bar up
/n\  - tremolo bar inverted dip
 =   - hold bend; also acts as connecting device for hammers/pulls
 <>  - volume swell (louder/softer)
 x   - on rhythm slash represents muted slash
 o   - on rhythm slash represents single note slash

Misc Legend
-----------
 |  - bar
||  - double bar
||o - repeat start
o|| - repeat end
*|  - double bar (ending)
 :  - bar (freetime)
 $  - Segno
 &  - Coda
Tempo markers - <E/E./Q/Q./H/H.> = BPM(8/16=s8/s16), where s8 = swing 8ths, s16 = swing 16th
comments
We did not receive enough feedback on this tab! Please rate:
print report bad tab
1 2 3 4 5
I want to post or [tab]
guest
You may want to rate the tab now too:
select rating
Please do not post tabs as comments. Select "correction" instead!