Oops, an error
Loading. Please wait.

Gap Tab

282 views 1 this week
no commentswrite comment
1 2 3 4 5
excellent!
x 2
Autoscroll
+/-
esc
set tempo
stop
Contributor
Hey! There's an official Ultimate Guitar app which is ideal
for learning songs when you're away from computer. Get the app
WARNING: You are trying to view
                                    content from Ultimate-Guitar.com
                                    in an unauthorized application,
                                    which is prohibited.

                                    Please use an official Ultimate
                                    Guitar Tabs application for iPhone,
                                    iPad or Android to access legitimate
                                    chords, guitar, bass, and drum tabs
                                    from Ultimate-Guitar.com database.

                                    Type "ultimate guitar tabs" in Apple
                                    App Store's or Android Market's
                                    search to find the application.
GAP
by: Cattski

Intro:
     D                                                    G        A      
1--2----------------0-----------------0~2-------------------0------0---|
2---3-------------3-------3---------3-----3-----------------0------2---|
3----0~2--------0-2---0~2---------0-2-------2-------0-------0------2---|
4--------------4-----------------4----------------4-------------2------|
5----------3/5---------------3/5---------------3/5-------2-----0-------|
6------------------------------------------------------3---------------|





       Bm                      A          G      A
1-----------------3-------------0-----------3-----0-------|
2-----------------2-------------2-----------3------2------|
3-----------------------------------2-----------2---------|  I
4-----------4---------4-------2----------------2----------|
5---------2----------------0--------------2---0-----------|
6---------------------------------------3-----------------|

I've been wanting to tell you about this gap between us


        Em                           Em

1--------------0----------------------------0-------------|
2--------------0----------------------------0-------------|
3--------------0----------------------------0-------------|  II
4---------2-----------------------------2-----------------|
5-----2-----------------------------2---------------------|
6-0-----------------------------0-------------------------|

   It started when I expressed my sentiments


       Bm                      A          G      A
1-------------------3-------------0-----------3-----0-------|
2-------------------2-------------2-----------3------2------|
3-------------------------------------2-----------2---------| III
4-------------4---------4-----2------------------2----------|
5-----0~2------------------0----------------2---0-----------|
6-----------------------------------------3-----------------|

I just think you deserve better, than whoever I really do


        Em                           Em

1--------------0----------------------------0-------------|
2--------------0----------------------------0-------------|
3--------------0----------------------------0-------------|   IV
4---------2-----------------------------2-----------------|
5-----2-----------------------------2---------------------|
6-0-----------------------------0-------------------------|
    Look up to you, and I want you to be happy



1---------0-----------------0---------------|       
2---------0--T---------3------3-------------|    
3------------A---------2--------2-----------|                 V
4------0-----P------------------------------| 
5--0~2--------------------------------------|  
6-------------------------------------------|   

       So I guess I'll say my sorry         


1---------0-----------------0---------------|       
2---------0--T---------3------3-------------|    
3------------A---------2--------2-----------|                 VI
4------0-----P------------------------------| 
5----2--------------------------------------|  
6-------------------------------------------|   
      
       before I really walk away
       But I'll always remember how  

1---------0------------------2~3------------|       
2---------0--T---------3--------------------|    
3------------A---------2--2-----------------|                VII
4------0-----P------------------------------| 
5----2--------------------------------------|  
6-------------------------------------------| 

       this didn't feel as right        

CHORUS:

      G          A                  Bm
1-----3----------0------------------2---------------|
2-----3---------------2-------------3---------------|
3----------------2------------------4---------------|        VIII
4------------2--------------------------------------|
5--2-------0------------------------2---------------|
6-3-------------------------------------------------|
   I don't know what you're looking for
   I just hope that indeed it's him



(TAB I & II)
And there's you little big boy you
well you're the promise we've all been waiting for
I can't believe I'd be missing the day of your first broken heart
and I wanna do my part

(TAB V,VI & VII)
you know that most of all I'll miss you
and if you cry for me I believe you
but for now I guess you'll have to let me go though


(TAB VIII)
I don't know what I'm looking for
I just know that it's not in here
I don't know what I'm looking for
I just know that it's not in here anymore


(TAB V 7X) 
Make sure you listen to mom & dad
Cause they'll teach you everything
Like how they taught me everything
And I'll always be grateful & faithful
But I can't be forever move 

        G            A
1-------3------------0-------------|
2-------3------------2-------------|
3-------0------------2-------------|
4----------------------------------|
5--------------------0-------------|
6-------3--------------------------|
       under their wings


(TAB I & II)
And well there's the two of you
Getting old and happy
And I can't be any happier for you
I'm just your middle child, and I've been screaming inside
in asking you to just let me be


(TAB V,VI & VII)
so I guess I'll say my sorry before I really walk away
and I'll carry no burden should you understand me


(TAB VIII)
but I don't know what I'm looking for
I just know that it's not in here
I don't know what I'm looking for
I just know that it's not in here anymore

(TAB INTRO)

eden says:
I use this tab for my own play and I want to share it with you because there's lot of
listeners really like it. Please email me your comments & suggestions.I'm glad to here
from you. This is not the perfect tab, if you have revisions just email me I'll really
appreciate it.Thank you! Go Cattski! Even if I'm not live in Cebu I really appreciate
your Music.
e.villafuerte@lycos.com
edemine2004@yahoo.ca

arlene says:
"i don't think we could figure out exactly how they play it coz we don't know the band
personally. This is to express our group's support to CATTSKI's music. Gap shows their
raw talent consisting of only a soulful voice and an excellent guitar which is the root
of their early music. Something any musician could truly aspire to achieve.
As for this tab, i didn't contrbute anything to it, eden should take all the credit.
i'm just a clapper. 
Mabuhay ang CATTSKI! forgive my fancy comments.."
arlene29_99@yahoo.com
comments
We did not receive enough feedback on this tab! Please rate:
print report bad tab
1 2 3 4 5
I want to post or [tab]
guest
You may want to rate the tab now too:
select rating
Please do not post tabs as comments. Select "correction" instead!