Oops, an error
Loading. Please wait.

Chameleon Tab

203 views 3 this week
no commentswrite comment
1 2 3 4 5
excellent!
x 1
Autoscroll
+/-
esc
set tempo
stop
Contributor
Difficulty
Tuning
advanced
D A D G B E
WARNING: You are trying to view
                                    content from Ultimate-Guitar.com
                                    in an unauthorized application,
                                    which is prohibited.

                                    Please use an official Ultimate
                                    Guitar Tabs application for iPhone,
                                    iPad or Android to access legitimate
                                    chords, guitar, bass, and drum tabs
                                    from Ultimate-Guitar.com database.

                                    Type "ultimate guitar tabs" in Apple
                                    App Store's or Android Market's
                                    search to find the application.
CAVE IN - CHAMELEON

    e------------------------------------------|
    B------------------------------------------|
GTR G-15-(FEEDBACK)-----------------pick slide-|
1+2 D------------------------------------------|
    A------------------------------------------|
    D------------------------------------------|

    e------------------|
    B------------------|
GTR G------------------| 
 1  D-2-2-1------------|
    A-2-2-1-(let ring)-|
    D-2-2-1------------|

    e--------------11(LR)-|
    B-----------10--------|
GTR G---------------------| 1
 2  D---------------------|
    A---------------------|
    D---------------------|

    e--------------|
    B--------------|
GTR G--------------| 
 1  D-1------------|
    A-1-(let ring)-|
    D-1------------|

    e-----------------------------|
    B-----------------------------|
GTR G-----------------------------| 2
 2  D-----------------------------|
    A-5tr6p0-5tr6p0 5tr6p0 5tr6p0-|
    D-----------------------------|

    e-----------------|
    B-----------7-6-5-|
GTR G---------8-------|
1+2 D-1---------------|
    A-1-(LR)----------|
    D-1---------------|

    e---------------------------|
    B--------------------10-9-8-|
GTR G------------------8--------|
1+2 D-1-----1h2p1-3-1-----------|
    A-1-----1h2p1-3-1-----------|
    D-1-111-1h2p1-3-1-----------|
        PM 

    e--------------------------0-------0-------|
    B--------------------7-6-5-5---5h6-4-------|
GTR G------------------8-------4-------3-------|
1+2 D-1-----1h2p1-3-1----------0-------0-------|
    A-1-----1h2p1-3-1----------------------2-2-|
    D-1-111-1h2p1-3-1----------------------2-2-|
        PM                                 PM

    e---------------------------------|
    B---------------------------7-6-5-|
GTR G-------------------------8-------|
 1  D-1-------------------------------|
    A-1-(LR)--------------------------|
    D-1-------------------------------|

    e---------------------------------|
    B---------------------------7-6-5-|
GTR G-------------------------8-------|
 2  D-1-------------------------------|
    A-1-(LR)--1h2-1h2-1h2-1h2---------|
    D-1-------------------------------|

    e---------------------------|
    B--------------------10-9-8-|
GTR G------------------8--------|
 1  D-1-----1h2p1-3-1-----------|
    A-1-----1h2p1-3-1-----------|
    D-1-111-1h2p1-3-1-----------|
        PM

    e---------------------------/14-|
    B--------------------10-9-8-----|
GTR G------------------8------------|
 2  D-1-----1h2p1-3-1---------------|
    A-1-----1h2p1-3-1---------------|
    D-1-111-1h2p1-3-1---------------|
        PM

    e--------------------------0-----0------|
    B--------------------7-6-5-5-5h6-4------|
GTR G------------------8-------4-----3------|
1+2 D-1-----1h2p1-3-1----------0-----0------|
    A-1-----1h2p1-3-1-------------------2-2-|
    D-1-111-1h2p1-3-1-------------------2-2-|
        PM                              PM

    e---------------------------------|
    B---------------------------7-6-5-|
GTR G-------------------------8-------|
 1  D-1-------------------------------|
    A-1-(LR)--------------------------|
    D-1-------------------------------|

    e---------------------------------|
    B---------------------------7-6-5-|
GTR G-------------------------8-------|
 2  D-1-------------------------------|
    A-1-(LR)--1h2-1h2-1h2-1h2---------|
    D-1-------------------------------|

    e-----------------------|
    B----------------10-9-8-|
GTR G--------------8--------|
1+2 D-1-----1h2p1-----------|
    A-1-----1h2p1-----------|
    D-1-111-1h2p1-----------|
        PM

    e-----------------------0-----0------------------|
    B----------------7-6-5--5-5h6-4------------------|
GTR G--------------8--------4-----3-------pick slide-|
1+2 D-1-----1h2p1-----------0-----0------------------|
    A-1-----1h2p1--------------------2-2-------------|
    D-1-111-1h2p1--------------------2-2-------------|
        PM                           PM

    e-----------------------------------------------------|
    B-----------------------------------------------------|
GTR G-----------------------------------------------------|
 1  D------1-----------1-----------1---------------4------|
    A-111111-(LR)-111111-(LR)-111111-(LR)-1111111114-(LR)-|
    D-111111------111111------111111------1111111114------|
      PM PM       PM PM       PM PM       PM PM PM

    e-----------------------------------------------------|
    B-------------------------------7-----6-----5---------|
GTR G--------------------------8--------------------------|
 2  D-1---------------------------------------------------|
    A-1---------------------------------------------------|
    D-1---------------------------------------------------|

    e------------------------------------------------------|
    B------------------------------------------------------|
GTR G-------------------------------------------3h6p3p0----|
 1  D------1-----------1-----------1---------------------4-|
    A-111111-(LR)-111111-(LR)-111111-(LR)-11111----------4-|
    D-111111------111111------111111------11111----------4-|
      PM PM       PM PM       PM PM       PM PM 

    e-----------------------------------------------------|
    B-------------------------------7-----6-----5---------|
GTR G--------------------------8--------------------------|
 2  D-1---------------------------------------------------|
    A-1---------------------------------------------------|
    D-1---------------------------------------------------|

    e----------------------------------0-----0-|
    B----------------------------7-6-5-5-5h6-4-|
GTR G--------------------------8-------4-----3-|
 1  D------1-----------1---------------0-----0-|
    A-111111-(LR)-111111-(LR)------------------|
    D-111111------111111-----------------------|
      PM PM       PM PM

    e------------------------------------------|
    B------------------------------------------|
GTR G------------------------------------------|
 2  D-1------------------------------1-2-----1-|
    A-1-(LR)--------------------111111-2-----1-|
    D-1-------------------------111111-2-----1-|
                                PM PM

    e----12----------|
    B-------16h17p16-|
GTR G-15-------------| x8
 1  D----------------|
    A----------------|
    D----------------|

    e----12----------|
    B-------16-------|
GTR G-15-------------| x8
 2  D----------------|
    A----------------|
    D----------------|

    e----12----|----12----|----12----|-----------------|
    B-------16-|-------16-|-------16-|-----------------|
GTR G-15-------|-15-------|-15-------|-7-7-7-7-7-7-7-7-|
 1  D----------|----------|----------|-5-5-5-5-5-5-5-5-|
    A----x2----|----x2----|----x2----|-5-5-5-5-5-5-5-5-|
    D----------|----------|----------|-5-5-5-5-5-5-5-5-|

    e----------|----------|----------|-----------------|
    B----------|----------|----------|-----------------|
GTR G----------|----------|----------|-7-7-7-7-7-7-7-7-|
 2  D----------|----------|----------|-5-5-5-5-5-5-5-5-|
    A-1-1------|-1-1------|-1-1------|-5-5-5-5-5-5-5-5-|
    D-1-1------|-1-1------|-1-1------|-5-5-5-5-5-5-5-5-|
      PM         PM         PM 

    e--------------------------------------------------------|
    B-----------------14h16h17--13h15h16---------------------|
GTR G-3-----2---3-2----------------------3-----2---3-2-5-3-2-| x6
1+2 D-1-----0---1-0----------------------1-----0---1-0-3-1-0-|
    A-1-0-0-0-0-1-0-0--------------------1-0-0-0-0-1-0-3-1-0-|
    D-1-0-0-0-0-1-0-0--------------------1-0-0-0-0-1-0-3-1-0-|
        PM    PM    PM                     PM    PM

    e---------------------|
    B---------------------|
GTR G---------------------|
 1  D-6-5-4-3-2-1-0-------|
    A-6-5-4-3-2-1-0-------|
    D-6-5-4-3-2-1-0-------|
      PM PM PM PM PM

    e---------------------|
    B---------------------|
GTR G----------------3tr4-|
 2  D---------------------|
    A---------------------|
    D---------------------|

    e---------------------------------------------|
    B---------------------------------------------|
GTR G---------------------------------------------|
 1  D-6-5-4-3-2-1-6-------9-------12------9-------|
    A-6-5-4-3-2-1-6-------9-------12------9-------|
    D-6-5-4-3-2-1-6-------9-------12------9-------|
      PM PM PM PM 

    e---------------------------------------------|
    B---------------------------------------------|
GTR G-------------------1-------4-------8-------4-|
 2  D---------------0-3-----3-6-----6-9-----3-6---|
    A-------------2-------5-------8-------5-------|
    D---------------------------------------------|

    e---------------------|
    B---------------------|
GTR G---------------------|
 1  D-6-5-4-3-2-1-0-------|
    A-6-5-4-3-2-1-0-------|
    D-6-5-4-3-2-1-0-------|
      PM PM PM PM PM

    e---------------------|
    B---------------------|
GTR G----------------3tr4-|
 2  D---------------------|
    A---------------------|
    D---------------------|

    e----------------------------------|
    B----------------------------------|
GTR G----------------------------------|
1+2 D-6-5-4-3-2-1-0--3--6--3-----------|
    A-6-5-4-3-2-1-2--5--8--5--0--4-3-2-|
    D-6-5-4-3-2-1-------------0--4-3-2-|
      PM PM PM PM             PM PM PM 

    e------------------------------------------------------|
    B------------------------------------------------------|
GTR G------------------------------------------------------|
1+2 D--------------------------------------------------2p1-|
    A-1-1-1---1-1-1---1-1-1--1-1-1---1-1-1---1-1-1-0h1-----|
    D-1-1-1---1-1-1---1-1-1--1-1-1---1-1-1---1-1-1---------|
      PM PM   PM PM   PM PM  PM PM   PM PM   PM PM   

    e-----------------------------------------------------------|
    B-----------------------------------------------------------|
GTR G-----------------------------------------------------------|
1+2 D----------------------------------2p1-----4p3-----6p5--3-2-|
    A-1-1-1---1-1-1---1-1-1--1-1-1-0h1-----1h2-----2h3------3-2-|
    D-1-1-1---1-1-1---1-1-1--1-1-1--------------------------3-2-|
      PM PM   PM PM   PM PM  PM PM   

    e------------------------------------------------------|
    B------------------------------------------------------|
GTR G------------------------------------------------------|
1+2 D--------------------------------------------------2p1-|
    A-1-1-1---1-1-1---1-1-1--1-1-1---1-1-1---1-1-1-0h1-----|
    D-1-1-1---1-1-1---1-1-1--1-1-1---1-1-1---1-1-1---------|
      PM PM   PM PM   PM PM  PM PM   PM PM   PM PM   

    e--------------------------------------------------------------|
    B--------------------------------------------------------------|
GTR G--------------------------------------------------------------|
 1  D----------------------------------2p1-----4p3-----6p5--3----2-|
    A-1-1-1---1-1-1---1-1-1--1-1-1-0h1-----1h2-----2h3------3----2-|
    D-1-1-1---1-1-1---1-1-1--1-1-1--------------------------3----2-|
      PM PM   PM PM   PM PM  PM PM   

    e-----------------------------------------------------------|
    B----------------------------------5p4-----7p6-----9p8------|
GTR G------------------------------2h3-----3h4-----4h5----------|
 2  D-------------------------------------------------------3-2-|
    A-1-1-1---1-1-1---1-1-1--1-1-1--------------------------3-2-|
    D-1-1-1---1-1-1---1-1-1--1-1-1--------------------------3-2-|
      PM PM   PM PM   PM PM  PM PM   

    e------------------------------------------------------|
    B------------------------------------------------------|
GTR G------------------------------------------------------|
1+2 D--------------------------------------------------2p1-|
    A-1-1-1---1-1-1---1-1-1--1-1-1---1-1-1---1-1-1-0h1-----|
    D-1-1-1---1-1-1---1-1-1--1-1-1---1-1-1---1-1-1---------|
      PM PM   PM PM   PM PM  PM PM   PM PM   PM PM   

    e-----------------------------------------------------------|
    B-----------------------------------------------------------|
GTR G-----------------------------------------------------------|
1+2 D----------------------------------2p1-----4p3-----6p5--3-2-|
    A-1-1-1---1-1-1---1-1-1--1-1-1-0h1-----1h2-----2h3------3-2-|
    D-1-1-1---1-1-1---1-1-1--1-1-1--------------------------3-2-|
      PM PM   PM PM   PM PM  PM PM   

    e------------------------------------------------------|
    B------------------------------------------------------|
GTR G------------------------------------------------------|
 1  D--------------------------------------------------2p1-|
    A-1-1-1---1-1-1---1-1-1--1-1-1---1-1-1---1-1-1-0h1-----|
    D-1-1-1---1-1-1---1-1-1--1-1-1---1-1-1---1-1-1---------|
      PM PM   PM PM   PM PM  PM PM   PM PM   PM PM   

    e------------------------------------------------------|
    B------------------------------------------------------|
GTR G--------------------------------------------------9p8-|
 2  D----------------------------------------------0h1-----|
    A-1-1-1---1-1-1---1-1-1--1-1-1---1-1-1---1-1-1---------|
    D-1-1-1---1-1-1---1-1-1--1-1-1---1-1-1---1-1-1---------|
      PM PM   PM PM   PM PM  PM PM   PM PM   PM PM  

    e---------------------------------------------------------------|
    B---------------------------------------------------------------|
GTR G---------------------------------------------------------------|
 1  D----------------------------------2p1-----4p3-----6p5--3-----2-|
    A-1-1-1---1-1-1---1-1-1--1-1-1-0h1-----1h2-----2h3------3-----2-|
    D-1-1-1---1-1-1---1-1-1--1-1-1--------------------------3-----2-|
      PM PM   PM PM   PM PM  PM PM   

    e---------------------------------------------------------------|
    B---------------------------------------------------------------|
GTR G---------------------------------------------------9p8---------|
 1  D----------------------------------2p1-----4p3----------3-----2-|
    A-1-1-1---1-1-1---1-1-1--1-1-1-0h1-----1h2-----2h3------3-----2-|
    D-1-1-1---1-1-1---1-1-1--1-1-1--------------------------3-----2-|
      PM PM   PM PM   PM PM  PM PM   

    e----------------------------------|
    B----------------------------------|
GTR G----------------------------------|
1+2 D-0-----------0h5-4-7-(BU,RELEASE)-|
    A-0-(LR)--0h1----------------------|
    D-0--------------------------------|

    e---------------------------------------|
    B---------------------------------------|
GTR G---------------------------------------| x2
1+2 D---------------------------------------|
    A-1111111111--11111111111--11111--11111-|
    D-1111111111--11111111111--11111--11111-|
      PM PM PM    PM PM PM PM  PM PM  PM PM


    e-------------------------|
    B-12----12-15-12----------|
GTR G----15----------15-BU,BD-| x6
 1  D-------------------------|
    A-------------------------|
    D-------------------------|

    e---------------------------------------|
    B---------------------------------------|
GTR G---------------------------------------| x2
 2  D---------------------------------------|
    A-1111111111--11111111111--11111--11111-|
    D-1111111111--11111111111--11111--11111-|
      PM PM PM    PM PM PM PM  PM PM  PM PM

    e-19-18-19p18p13----------|
    B----------------12-------|
GTR G-------------------15-BD-| x3
 1  D-------------------------|
    A-------------------------|
    D-------------------------|

    e---------------------------------------|
    B---------------------------------------|
GTR G---------------------------------------| x1
 2  D---------------------------------------|
    A-1111111111--11111111111--11111--11111-|
    D-1111111111--11111111111--11111--11111-|
      PM PM PM    PM PM PM PM  PM PM  PM PM


    e-------------------------|
    B-12----12-15-12----------|
GTR G----15----------15-BU,BD-| x3
 1  D-------------------------|
    A-------------------------|
    D-------------------------|

    e---------------------------------------|
    B---------------------------------------|
GTR G---------------------------------------| x1
 2  D---------------------------------------|
    A-1111111111--11111111111--11111--11111-|
    D-1111111111--11111111111--11111--11111-|
      PM PM PM    PM PM PM PM  PM PM  PM PM


    e---------------------------------------|
    B---------------------------------------|
GTR G---------------------------------------| x4
1+2 D---------------------------------------|
    A-1111111111--11111111111--11111--11111-|
    D-1111111111--11111111111--11111--11111-|
      PM PM PM    PM PM PM PM  PM PM  PM PM

    e-----6-5---------|
    B-4-5---------4-5-|
GTR G-----------------|
 1  D---------4-3-----|
    A-----------------|
    D-----------------|
      PM PM PM PM PM

    e-----------------|
    B-----------------|
GTR G-----3-2-----4-5-|
 2  D-1-2-----4-3-----|
    A-----------------|
    D-----------------|
      PM PM PM PM PM 

    e-----------------|-------------------|
    B-----------------|-------------------|
GTR G-----------------|-------------------| 1,3
 1  D-----------------|-------------------|
    A-1-1-1-5-5--1/2--|-------------------|
    D-1-1-1-1-1--1/2--|-------------------|
      PM PM

    e----------------|--------------------|
    B----------------|--------------------|
GTR G----------------|--------------------| 1,3
 2  D----------------|--------------------|
    A----------------|-2h3h5--1h2h4--0h1--|
    D----------------|--------------------|

    e----------------|--------------------|
    B----------------|--------------------|
GTR G----------------|--------------------| 2
 1  D----------------|--------------------|
    A-1/2-1-5-5-1----|--------------------|
    D-1/2-1-1-1-1----|--------------------|
      PM PM OM OM

    e----------------|--------------------|
    B----------------|---------4/16-------|
GTR G----------------|-----4-3------------| 2
 2  D----------------|-4-3----------------|
    A----------------|--------------------|
    D----------------|--------------------|

    e----------------|--------------------|
    B----------------|--------------------|
GTR G----------------|--------------------| 4
 1  D----------------|-2----1-------------|
    A-1/2-1-5-5------|-2----1-------------|
    D-1/2-1-1-1------|-2----1-------------|
      PM PM PM

    e----------------|--------------------|
    B----------------|-16---15------------|
GTR G----------------|--------------------| 4
 2  D----------------|--------------------|
    A----------------|--------------------|
    D----------------|--------------------|

    e----------------|-------------------|
    B----------------|-------------------|
GTR G----------------|-------------------| 1,3
 1  D----------------|-------------------|
    A-1-2\1-0-5-5-1/2|-------------------|
    D-1-2\1-0-1-1-1/2|-------------------|
     PM     PM

    e----------------|--------------------|
    B----------------|--------------------|
GTR G----------------|--------------------| 1,3
 2  D----------------|--------------------|
    A----------------|-2h3h5--1h2h4--0h1--|
    D----------------|--------------------|

    e----------------|--------------------|
    B----------------|--------------------|
GTR G----------------|--------------------| 2
 1  D----------------|--------------------|
    A-1-2\1-0-5-5-1/2|--------------------|
    D-1-2\1-0-1-1-1/2|--------------------|
     PM     PM

    e----------------|--------------------|
    B----------------|---------4/16-------|
GTR G----------------|-----4-3------------| 2
 2  D----------------|-4-3----------------|
    A----------------|--------------------|
    D----------------|--------------------|

    e----------------|--------------------|
    B----------------|--------------------|
GTR G----------------|--------------------| 4
 1  D----------------|-2----1-------------|
    A-1-2\1-0-5-5-1/2|-2----1-------------|
    D-1-2\1-0-1-1-1/2|-2----1-------------|
      PM    PM

    e----------------|--------------------|
    B----------------|-16---15------------|
GTR G----------------|--------------------| 4
 2  D----------------|--------------------|
    A----------------|--------------------|
    D----------------|--------------------|

    e--------|-----|---------------|-----|-----|
    B--------|-----|---------------|-----|-----|
GTR G----8p7-|-----|-6p5-------6p5-|-----|-5p4-|
 1  D-10-----|-----|---------8-----|-----|-----|
    A--------|-----|---------------|-----|-----|
    D--------|-----|---------------|-----|-----|
      PM                    PM 

    e--------|-----|---------------|-----|-----|
    B--------|-----|---------------|-----|-----|
GTR G--------|-----|---------------|-----|-----|
 2  D--------|-----|---------------|-----|-----|
    A--------|-4-3-|---------------|-3-2-|-----|
    D--------|-4-3-|---------------|-3-2-|-----|
              PM PM                 PM PM

    e-------------------|--------------------|
    B-------------------|--------------------|
GTR G-------------------|--------------------| 1,3
 1  D-------------------|--------------------|
    A-1/2-1-0h1-0h1-1h2-|--------------------|
    D-1/2-1-0h1-0h1-1h2-|--------------------|

    e----------------|--------------------|
    B----------------|--------------------|
GTR G----------------|--------------------| 1,3
 2  D----------------|--------------------|
    A----------------|-2h3h5--1h2h4--0h1--|
    D----------------|--------------------|


    e----------------|-------------------|
    B----------------|-------------------|
GTR G----------------|-------------------| 2 
 1  D----------------|-------------------|
    A-1-2\1-0-5-5-1/2|-------------------|
    D-1-2\1-0-1-1-1/2|-------------------|
     PM     PM

    e----------------|--------------------|
    B----------------|---------4/16-------|
GTR G----------------|-----4-3------------| 2
 2  D----------------|-4-3----------------|
    A----------------|--------------------|
    D----------------|--------------------|

    e----------------|--------------------|
    B----------------|--------------------|
GTR G----------------|--------------------| 4
 1  D----------------|-2----1-------------|
    A-1-2\1-0-5-5-1/2|-2----1-------------|
    D-1-2\1-0-1-1-1/2|-2----1-------------|
      PM    PM

    e----------------|--------------------|
    B----------------|-16---15------------|
GTR G----------------|--------------------| 4
 2  D----------------|--------------------|
    A----------------|--------------------|
    D----------------|--------------------|

    e--------|-----|---------------|-----|-----|
    B--------|-----|---------------|-----|-----|
GTR G----8p7-|-----|-6p5-------6p5-|-----|-5p4-|
 1  D-10-----|-----|---------8-----|-----|-----|
    A--------|-----|---------------|-----|-----|
    D--------|-----|---------------|-----|-----|
      PM                    PM 

    e--------|-----|---------------|-----|-----|
    B--------|-----|---------------|-----|-----|
GTR G--------|-----|---------------|-----|-----|
 2  D--------|-----|---------------|-----|-----|
    A--------|-4-3-|---------------|-3-2-|-----|
    D--------|-4-3-|---------------|-3-2-|-----|
              PM PM                 PM PM

    e------------------------------|
    B-----------------------7-6-5--|
GTR G---------------------8--------|
1+2 D-6----1-----------------------|
    A-6----1-(Let ring)------------|
    D-6----1-----------------------|


    e-------------------------------------|
    B------------------16-10-9-8(vibrato)-|
GTR G-------------------------------------|
 1  D-1-----1h2p1-3-1---------------------|
    A-1-111-1h2p1-3-1---------------------|
    D-1-111-1h2p1-3-1---------------------|

    e-------------------------------------|
    B------------------16-10-9-8(vibrato)-|
GTR G-Clink-------------------------------|
 2  D-------------------------------------|
    A-------------------------------------|
    D-------------------------------------|


    e----------------------0-------0-------------|
    B----------------7-6-5-5--5h6--4-------------|
GTR G--------------8-------4-------3--Pick slide-|
1+2 D-1--------------------0-------0-------------|
    A-1-(let ring)-------------------------------|
    D-1------------------------------------------|

    e---------------------------------------------|----------------|
    B-------------1,3-----------------------------|-------2--------|
GTR G-------------------------------(eleven)------|----------------|
1+2 D---------------------------------------------|----------------|
    A-0000-3333-6666-4444-5555-8888-11111111-9999-|-2--5--5-4-2-1--|
    D---------------------------------------------|----------------|
      PM PM PM PM PM PM PM PM PM PM PM PM PM PM 

    e--------|-----|---------------|-----|-----|
    B--------|-----|---------------|-----|-----|
GTR G----8p7-|-----|-6p5-------6p5-|-----|-5p4-|
 1  D-10-----|-----|---------8-----|-----|-----|
    A--------|-----|---------------|-----|-----|
    D--------|-----|---------------|-----|-----|
      PM                    PM 

    e--------|-----|---------------|-----|-----|
    B--------|-----|---------------|-----|-Pick|
GTR G--------|-----|---------------|-----|Slide|
 2  D--------|-----|---------------|-----|-----|
    A--------|-4-3-|---------------|-3-2-|-----|
    D--------|-4-3-|---------------|-3-2-|-----|
              PM PM                 PM PM

    e---------------------------------------------|----------------|
    B-------------1,3-----------------------------|-------2--------|
GTR G-------------------------------(eleven)------|----------------|
 1  D---------------------------------------------|----------------|
    A-0000-3333-6666-4444-5555-8888-11111111-9999-|-2--5--5-4-2-1--|
    D---------------------------------------------|----------------|
      PM PM PM  PM PM PM PM PM PM PM PM PM PM PM

    e---------------------------------------------|----------------|
    B-------------1,3-----------------------------|-----------16-15|
GTR G-------------------------------(eleven)------|------7-6-------|
 2  D---------------------------------------------|-1--4-----------|
    A-0000-3333-6666-4444-5555-8888-11111111-9999-|----------------|
    D---------------------------------------------|-------2--------|
      PM PM PM PM PM PM PM PM PM PM PM PM PM PM 

    e--------|-----|---------------|-----|-----|
    B--------|-----|---------------|-----|-----|
GTR G----8p7-|-----|-6p5-------6p5-|-----|-5p4-|
 1  D-10-----|-----|---------8-----|-----|-----|
    A--------|-----|---------------|-----|-----|
    D--------|-----|---------------|-----|-----|
      PM                    PM 

    e--------|-----|---------------|-----|-----|
    B--------|-----|---------------|-----|-Pick|
GTR G--------|-----|---------------|-----|Slide|
 2  D--------|-----|---------------|-----|-----|
    A--------|-4-3-|---------------|-3-2-|-----|
    D--------|-4-3-|---------------|-3-2-|-----|
              PM PM                 PM PM

    e----------|
    B----------|
GTR G----------|
1+2 D----------|
    A-0--4-3-2-|
    D-0--4-3-2-|

    e------------------------------------------------------|
    B------------------------------------------------------|
GTR G------------------------------------------------------|
1+2 D--------------------------------------------------2p1-|
    A-1-1-1---1-1-1---1-1-1--1-1-1---1-1-1---1-1-1-0h1-----|
    D-1-1-1---1-1-1---1-1-1--1-1-1---1-1-1---1-1-1---------|
      PM PM   PM PM   PM PM  PM PM   PM PM   PM PM   

    e-----------------------------------------------------------|
    B-----------------------------------------------------------|
GTR G-----------------------------------------------------------|
1+2 D----------------------------------2p1-----4p3-----6p5--3-2-|
    A-1-1-1---1-1-1---1-1-1--1-1-1-0h1-----1h2-----2h3------3-2-|
    D-1-1-1---1-1-1---1-1-1--1-1-1--------------------------3-2-|
      PM PM   PM PM   PM PM  PM PM   

    e------------------------------------------------------|
    B------------------------------------------------------|
GTR G------------------------------------------------------|
1+2 D--------------------------------------------------2p1-|
    A-1-1-1---1-1-1---1-1-1--1-1-1---1-1-1---1-1-1-0h1-----|
    D-1-1-1---1-1-1---1-1-1--1-1-1---1-1-1---1-1-1---------|
      PM PM   PM PM   PM PM  PM PM   PM PM   PM PM   

    e--------------------------------------------------------------|
    B--------------------------------------------------------------|
GTR G--------------------------------------------------------------|
 1  D----------------------------------2p1-----4p3-----6p5--3----2-|
    A-1-1-1---1-1-1---1-1-1--1-1-1-0h1-----1h2-----2h3------3----2-|
    D-1-1-1---1-1-1---1-1-1--1-1-1--------------------------3----2-|
      PM PM   PM PM   PM PM  PM PM   

    e-----------------------------------------------------------|
    B----------------------------------5p4-----7p6-----9p8------|
GTR G------------------------------2h3-----3h4-----4h5----------|
 2  D-------------------------------------------------------3-2-|
    A-1-1-1---1-1-1---1-1-1--1-1-1--------------------------3-2-|
    D-1-1-1---1-1-1---1-1-1--1-1-1--------------------------3-2-|
      PM PM   PM PM   PM PM  PM PM   

    e------------------------------------------------------|
    B------------------------------------------------------|
GTR G------------------------------------------------------|
1+2 D--------------------------------------------------2p1-|
    A-1-1-1---1-1-1---1-1-1--1-1-1---1-1-1---1-1-1-0h1-----|
    D-1-1-1---1-1-1---1-1-1--1-1-1---1-1-1---1-1-1---------|
      PM PM   PM PM   PM PM  PM PM   PM PM   PM PM   

    e-----------------------------------------------------------|
    B-----------------------------------------------------------|
GTR G-----------------------------------------------------------|
1+2 D----------------------------------2p1-----4p3-----6p5--3-2-|
    A-1-1-1---1-1-1---1-1-1--1-1-1-0h1-----1h2-----2h3------3-2-|
    D-1-1-1---1-1-1---1-1-1--1-1-1--------------------------3-2-|
      PM PM   PM PM   PM PM  PM PM   

    e------------------------------------------------------|
    B------------------------------------------------------|
GTR G------------------------------------------------------|
 1  D--------------------------------------------------2p1-|
    A-1-1-1---1-1-1---1-1-1--1-1-1---1-1-1---1-1-1-0h1-----|
    D-1-1-1---1-1-1---1-1-1--1-1-1---1-1-1---1-1-1---------|
      PM PM   PM PM   PM PM  PM PM   PM PM   PM PM   

    e------------------------------------------------------|
    B------------------------------------------------------|
GTR G--------------------------------------------------9p8-|
 2  D----------------------------------------------0h1-----|
    A-1-1-1---1-1-1---1-1-1--1-1-1---1-1-1---1-1-1---------|
    D-1-1-1---1-1-1---1-1-1--1-1-1---1-1-1---1-1-1---------|
      PM PM   PM PM   PM PM  PM PM   PM PM   PM PM  

    e---------------------------------------------------------------|
    B---------------------------------------------------------------|
GTR G---------------------------------------------------------------|
 1  D----------------------------------2p1-----4p3-----6p5--3-----2-|
    A-1-1-1---1-1-1---1-1-1--1-1-1-0h1-----1h2-----2h3------3-----2-|
    D-1-1-1---1-1-1---1-1-1--1-1-1--------------------------3-----2-|
      PM PM   PM PM   PM PM  PM PM   

    e---------------------------------------------------------------|
    B---------------------------------------------------------------|
GTR G---------------------------------------------------9p8---------|
 1  D----------------------------------2p1-----4p3----------3-----2-|
    A-1-1-1---1-1-1---1-1-1--1-1-1-0h1-----1h2-----2h3------3-----2-|
    D-1-1-1---1-1-1---1-1-1--1-1-1--------------------------3-----2-|
      PM PM   PM PM   PM PM  PM PM   

    e-------------------------------------------------|
    B-------------------------------------------------|
GTR G-------------------------------------------------|
 1  D-1-----------------------------------------------|
    A-1-(Let ring)------------------------------------|
    D-1-----------------------------------------------|


    e-------------------------------------------------|
    B-15-15-15-15-15-15-15-15-15-15-15-15-15-15-15-15-|
GTR G-14-14-14-14-14-14-14-14-14-14-14-14-14-14-14-14-|
 2  D-------------------------------------------------|
    A-------------------------------------------------|
    D-------------------------------------------------|

    e---------------------------------------|
    B---------------------------------------|
GTR G---------------------------------------| 
1+2 D---------------------------------------|
    A-1111111111--11111111111--11111--11111-|
    D-1111111111--11111111111--11111--11111-|
      PM PM PM    PM PM PM PM  PM PM  PM PM

END

Any corrections or suggestions please email thisisourstruggle@hotmail.co.uk
comments
We did not receive enough feedback on this tab! Please rate:
1 2 3 4 5
I want to post or [tab]
guest
You may want to rate the tab now too:
select rating
Please do not post tabs as comments. Select "correction" instead!