Oops, an error
Loading. Please wait.

Flypaper Tab

156 views 1 this week
no commentswrite comment
1 2 3 4 5
please rate
Autoscroll
+/-
esc
set tempo
stop
Contributor
Difficulty
Tuning
advanced
D A D G B E
Hey! There's an official Ultimate Guitar app which is ideal
for learning songs when you're away from computer. Get the app
WARNING: You are trying to view
                                    content from Ultimate-Guitar.com
                                    in an unauthorized application,
                                    which is prohibited.

                                    Please use an official Ultimate
                                    Guitar Tabs application for iPhone,
                                    iPad or Android to access legitimate
                                    chords, guitar, bass, and drum tabs
                                    from Ultimate-Guitar.com database.

                                    Type "ultimate guitar tabs" in Apple
                                    App Store's or Android Market's
                                    search to find the application.
CAVE IN FLYPAPER

* = Harmonic
tr = trill
^ = bend up

    e|-----8---------|
    B|-7h8---8-7h8---|
GTR G|-------------9-|
 1  D|---------------|
    A|---------------|
    D|---------------|

    e|---------------|
    B|-----8---------|
GTR G|-6h7---7-6h7---|
 2  D|-------------9-|
    A|---------------|
    D|---------------|

    e|------------------------|
    B|------------------------|
GTR G|-7-----7-----7----------|
 1  D|-9-----9-----9----------|
    A|-10----10----10---------|
    D|-10----10----10---------|

    e|------------------------|
    B|------------------------|
GTR G|-7-----7-----7-----7----|
 2  D|------------------------|
    A|------------------------|
    D|------------------------|
 
    e|-------------------------|
    B|-------------------------|
GTR G|-7-----------------------|
 1  D|-9-- let ring------------|
    A|-10--throughout----------|
    D|-10----------------------|

    e|-------------------------|
    B|-------------------------|
GTR G|-------------------------|
 2  D|-9-h10-10-10-10-10-10-10-|
    A|-10-10-10-10-10-10-10-10-|
    D|-------------------------|
             PM PM PM PM PM PM

    e|-------------------------|
    B|-------------------------|
GTR G|-7-----------------------|
 1  D|-9-----------------------|
    A|-10----pick slide--------|
    D|-10----------------------|

    e|-------------------------|
    B|-------------------------|
GTR G|-------------------------|
 2  D|-9-h10-10-10-10-10-10-10-|
    A|-10-10-10-10-10-10-10-10-|
    D|-------------------------|
             PM PM PM PM PM PM

    e|---------7-7---------7-7---------7-7-----------|
    B|-5-7-3-8-----5-7-3-8-----5-7-3-8-----8-7-5-7-3-|
GTR G|-------------------------------------9---------|
 1  D|-----------------------------------------------|
    A|-----------------------------------------------|
    D|-----------------------------------------------|

    e|-----------------------------------------------|
    B|-------------------------------------8-7-5-7-3-|
GTR G|-----------------------------------------------|
 2  D|-10----------7-----------10--------------------|
    A|-10----------7-----------10--------------------|
    D|-10----------7-----------10--------------------|

    e|---------7-7--------------------------------7-7-----------|
    B|-5-7-3-8-----5-7--------------------5-7-3-8-----8-7-5-7-3-|
GTR G|-----------------7------------------------------9---------|
 1  D|---------------------------5*----5*-----------------------|
    A|-------------------7p5-2h3----5*--------------------------|
    D|----------------------------------------------------------|

    e|----------------------------------------------------------|
    B|------------------------------------------------8-7-5-7-3-|
GTR G|----------------------------------------------------------|
 2  D|-10----------7----------------------10--------------------|
    A|-10----------7----------------------10--------------------|
    D|-10----------7----------------------10--------------------|

    e|---------------------------3---------|
    B|-5555555555555555-55555555---5---555-|
GTR G|-0000000000000000-22222222-----2-222-|
1+2 D|-------------------------------------|
    A|-------------------------------------|
    D|-------------------------------------|
       PMPMPMPMPMPMPMPM PMPMPMPM       P M

    e|-----7-----10-----7----10-----7-|
    B|-8-8---8-8----8-8-8888----8-8---|
GTR G|--------------------------------|
1+2 D|--------------------------------|
    A|--------------------------------|
    D|--------------------------------|
       P M   P M    P M PMPM    P M

    e|-------------------------------------|
    B|-5-5-7-7-8-8-10-10-12-12-10-10-8-8-7-|
GTR G|-0-0-0-0-0-0-0--0--0--0--0--0--0-0-0-|
 1  D|-------------------------------------|
    A|-------------------------------------|
    D|-------------------------------------|

    e|----------------------------------|
    B|-5-5-7-7-8-8-10-10----------------|
GTR G|-0-0-0-0-0-0-0--0--14141414141414-|
 2  D|----------------------------------|
    A|----------------------------------|
    D|----------------------------------|

    e|-------------------------------------------------|
    B|-12h13p12-------------12h13p12-------------------|
GTR G|----------11h12p11-------------11h12p11----------|
 1  D|-------------------12-------------------12-------|
    A|-------------------------------------------1-1-2-|
    D|---------------------- 1,2 ----------------1-1-2-|
                                                 P MPM

    e|-------------------------------------------------|
    B|-------------------------------------------------|
GTR G|-------------------------------------------------|
 2  D|-------------------------------------------------|
    A|-------------------------------------------1-1-2-|
    D|---------------------- 1,2 ----------------1-1-2-|
                                                 P MPM

    e|---------------------------------------------------|
    B|-12h13p12-------------12h13p12-------------16^-16^-|
GTR G|----------11h12p11-------------11h12p11------------|
 1  D|-------------------12-------------------12---------|
    A|---------------------------------------------------|
    D|---------------------- 4 --------------------------|
                                                 

    e|---------------------------------------------------|
    B|-------------------------------------------16^-16^-|
GTR G|---------------------------------------------------|
 2  D|---------------------------------------------------|
    A|---------------------------------------------------|
    D|---------------------- 4 --------------------------|
                                      
----------------------------------------------------
     
    e|----------------------------------------|
    B|-------13-12h13----12h13p12-------------|
GTR G|-11h12----------------------11h12p11----|
 1  D|----------------12-------------------12-|
    A|----------------------------------------|
    D|----------------------------------------|

    e|--------------- 1,3 --------------------|
    B|----------------------------------------|
GTR G|----------------------------------------|
 2  D|-10-------------------------------------|
    A|-10-------------------------------------|
    D|-10-------------------------------------|

    e|----------------------------------------|
    B|-------13-12h13----12h13p12-------------|
GTR G|-11h12----------------------11h12p11----|
 1  D|----------------12-------------------12-|
    A|----------------------------------------|
    D|----------------------------------------|

    e|--------------- 2 ----------------------|
    B|----------------------------------------|
GTR G|----------------------------------------|
 2  D|-7--------------------------------------|
    A|-7--------------3p0---------------------|
    D|-7--------------------------------------|

    e|---------------------------------------|
    B|-12-12-12-11-11-11-11-9-9-11-11-11-7-7-|
GTR G|-0--0--0--0--0--0--0--0-0-12-12-12-0-0-|
1+2 D|---------------------------------------|
    A|---------------------------------------|
    D|---------------------------------------|

play whole section x2
--------------------------------------------------

    e|--------------------------------------|
    B|---------5----------------------------|
GTR G|-----------4------------4-------------|
 1  D|-2----------------1---1----pick slide-|
    A|-2--------------3---3-----------------|
    D|-2------------------------------------|

    e|--------------------------------------|
    B|--------------------------------------|
GTR G|--------------------------------------|
 2  D|-2------------------------------------|
    A|-2-let ring---------------------------|
    D|-2------------------------------------|

    e|--------------------------------------|
    B|--------------------------------------|
GTR G|--------------------------------------|
 1  D|000000000-00000000-000000000-00000000-| x3
    A|-77777777-66666666-222222222-33333333-|
    D|--------------------------------------|

    e|-----------------------------------------|
    B|-----------------------------------------|
GTR G|-----------------------------------------|
 1  D|-00000000-0000000------00000000-00000000-|
    A|-77777777-66666665h6p5-22222222-33333333-|
    D|-----------------------------------------|

    e|------------------------|
    B|------------------------|
GTR G|--------------6p5-5h6-8-|
1+2 D|-1----------------------| x3
    A|-1-1111111111-----------|
    D|-1-1111111111-----------|
         PMPMPMPMPM

    e|------------------------------|
    B|------------------------------|
GTR G|------------------------------|
1+2 D|-1----------------------------|
    A|-1-1111111111-210-210-210-210-|
    D|-1-1111111111-210-210-210-210-|
         PMPMPMPMPM P M P M P M P M

    e|------------------------|
    B|------------------------|
GTR G|--------------6p5-5h6-8-|
1+2 D|-1----------------------| x3
    A|-1-1111111111-----------|
    D|-1-1111111111-----------|
         PMPMPMPMPM

    e|---------------|
    B|-5---5---5---5-|
GTR G|---8---8---8---|
1+2 D|---------------|
    A|---------------|
    D|---------------|

    e|----------------------------------------------------------|
    B|----------------------------------------------------------|
GTR G|----------------------------------------------------------|
1+2 D|----------------------------------------------------------| 
    A|-3333-5555-6666-555-66-77777------------------------------|
    D|-----------------------------555-777-888888-777-88-999999-|

    e|----------------------------------------------------------|
    B|----------------------------------------------------------|
GTR G|----------------------------------------------------------|
 1  D|----------------------------------------------------------| 
    A|-3333-5555-6666-555-66-77777------------------------------|
    D|-----------------------------555-777-888888-777-88-999999-|

    e|----------------------------------------------------------|
    B|----------------------------------------------------------|
GTR G|----------------------------------------------------------|
 2  D|-1111-3333-4444-333-44-55555------------------------------|
    A|-----------------------------111-333-444444-333-44-555555-|
    D|----------------------------------------------------------|

    e|------------------------|
    B|-4----------------------|
GTR G|--------------6p5-5h6-8-|
 1  D|-1----------------------| 1,3
    A|-1-1111111111-----------|
    D|-1-1111111111-----------|
         PMPMPMPMPM

    e|-------------------------|
    B|-------------------------|
GTR G|-8888888-13-111111-13-13-|
 2  D|-------------------------| 1,3
    A|-------------(11)--------|
    D|-------------------------|

    e|------------------------|
    B|-4----------------------|
GTR G|------------------------|
 1  D|-1----------------------| 2
    A|-1-1111111111-4p3-3h4-6-|
    D|-1-1111111111-----------|
         PMPMPMPMPM

    e|---------------------------|
    B|-------------12121212-1414-|
GTR G|-88888888-13---------------|
 2  D|---------------------------| 2
    A|---------------------------|
    D|---------------------------|

    e|----------------------------------|
    B|----------------------------------|
GTR G|----------------------------------|
 1  D|-1------------6-------------------| 4
    A|-1-1111111111-6\5-5\4-4\3-3\2-2\1-|
    D|-1-1111111111-6\5-5\4-4\3-3\2-2\1-|
         PMPMPMPMPM   P M P M P M P M

    e|-----------------------------|
    B|-----------------------------|
GTR G|-8888888---------------------|
 2  D|---------6-------------------| 4
    A|---------6\5-5\4-4\3-3\2-2\1-|
    D|---------6\5-5\4-4\3-3\2-2\1-|
                 P M P M P M P M

    e|---------------------|
    B|----4----4----4----4-|
GTR G|---------------------|
1+2 D|----1----1----1----1-| x2
    A|-11-1-11-1-11-1-11-1-|
    D|-11-1-11-1-11-1-11-1-|
       PM   PM   PM   PM

    e|-------------------------------|
    B|-7 let ring--------11 let ring-|
GTR G|-------------------------------|
1+2 D|-------------------------------|
    A|-------------------------------|
    D|-------------------------------|

    e|----------------------------------------------------------|
    B|----------------------------------------------------------|
GTR G|----------------------------------------------------------|
1+2 D|----------------------------------------------------------| 
    A|-3333-5555-6666-555-66-77777------------------------------|
    D|-----------------------------555-777-888888-777-88-999999-|

    e|----------------------------------------------------------|
    B|----------------------------------------------------------|
GTR G|----------------------------------------------------------|
 1  D|----------------------------------------------------------| 
    A|-3333-5555-6666-555-66-77777------------------------------|
    D|-----------------------------555-777-888888-777-88-999999-|

    e|----------------------------------------------------------|
    B|----------------------------------------------------------|
GTR G|----------------------------------------------------------|
 2  D|-1111-3333-4444-333-44-55555------------------------------|
    A|-----------------------------111-333-444444-333-44-555555-|
    D|----------------------------------------------------------|

    e|-------------------------|
    B|-------------------------|
GTR G|-------------------------|
1+2 D|-4-6-7-6-7-8-------------| x2
    A|-3-5-6-5-6-7-4-6-7-6-7-8-|
    D|-------------5-7-8-7-8-9-|

    e|--------------------------------------|
    B|--------------------------------------|
GTR G|-9-999999-8-888888-88888-44-8-8888-44-|
1+2 D|-9-999999-8-888888--------------------| 1,3
    A|-------------------66666-22-6-6666-22-|
    D|--------------------------------------|
         PMPMPM   PMPMPM

    e|--------------------------------------|
    B|--------------------------------------|
GTR G|-9-999999-8-888888-88888-44-8-8888-44-|
 1  D|-9-999999-8-888888--------------------| 2,4
    A|-------------------66666-22-6-6666-22-|
    D|--------------------------------------|
         PMPMPM   PMPMPM

    e|--------------------------------------|
    B|---------------------------/77777777--|
GTR G|-9-999999-8-888888-88888-4------------|
 2  D|-9-999999-8-888888--------------------| 2,4
    A|-------------------66666-2------------|
    D|--------------------------------------|
         PMPMPM   PMPMPM

    e|--------------------------------------|
    B|--------------------------------------|
GTR G|-9999-11111111-16161616-141414-171717-|
1+2 D|--------------------------------------|
    A|-7777-9-9-9-9--14141414-121212-151515-|
    D|--------------------------------------|

    e|-------------------------------|
    B|-------------------------------|
GTR G|-9999-8888-11111111-999-9h11p9-|
1+2 D|-------------------------------|
    A|-7777-6666-9-9-9-9--777--------|
    D|-------------------------------|

    e|------------------------------------------|
    B|------------------------------------------|
GTR G|-999-8/9\8-11111111-161616-14/16-17171717-|
1+2 D|------------------------------------------|
    A|-777-------9-9-9-9--141414-------15151515-|
    D|------------------------------------------|

    e|------------------------------|
    B|------------------------------|
GTR G|-99-9/11\9-888-16-11111111-17-|
1+2 D|------------------------------|
    A|-77--------666-14-9-9-9-9--15-|
    D|------------------------------|

    e|------------------------------------------------------------|
    B|------------------------------------------------------------|
GTR G|-----666666--------777776h755-----6\5\4\3\2\1--------777755-| 
 1  D|------------------------------------------------------------|
    A|-000--------1/-111------------000-------------1/-111--------|
    D|-000--------1/-111------------000-------------1/-111--------|

    e|------------------------------------------------------------|
    B|------------------------------------------------------------|
GTR G|-----666666--------777776h755-----6\5\4\3\2\1--------pick---| 
 2  D|-----------------------------------------------------slide--|
    A|-000--------1/-111------------000-------------1/-111--------|
    D|-000--------1/-111------------000-------------1/-111--------|
       P M           P M            P M                P M

    e|--------------------------------|
    B|--------------------------------|
GTR G|-----6666-6-6-66-----7777----55-|
1+2 D|-----6666-6-6-66----------------|
    A|-000-4444-4-4-44-111-5555-00-33-|
    D|-000-4444-4-4-44-111------00----|
                       P M      PM

    e|---------------------------------------|
    B|---------------------------------------|
GTR G|-----6666-6-6-66-----7777/9-9/10-10/12-|
1+2 D|-----6666-6-6-66-----------------------| x3
    A|-000-4444-4-4-44-111-5555--------------|
    D|-000-4444-4-4-44-111-------------------|
                       P M      

    e|----------------------------------------------------------|
    B|----------------------------------------------------------|
GTR G|----------------------------------------------------------|
1+2 D|----------------------------------------------------------| 
    A|-3333-5555-6666-555-66-77777------------------------------|
    D|-----------------------------555-777-888888-777-88-999999-|

    e|----------------------------------------------------------|
    B|----------------------------------------------------------|
GTR G|----------------------------------------------------------|
 1  D|----------------------------------------------------------| 
    A|-3333-5555-6666-555-66-77777------------------------------|
    D|-----------------------------555-777-888888-777-88-999999-|

    e|----------------------------------------------------------|
    B|----------------------------------------------------------|
GTR G|----------------------------------------------------------|
 2  D|-1111-3333-4444-333-44-55555------------------------------|
    A|-----------------------------111-333-444444-333-44-555555-|
    D|----------------------------------------------------------|

    e|----------------------------------------------------------|
    B|----------------------------------------------------------|
GTR G|----------------------------------------------------------|
1+2 D|----------------------------------------------------------| 
    A|-3333-5555-6666-555-66-77777------------------------------|
    D|-----------------------------555-777-888888-777-88-999999-|

    e|-------------------------|
    B|-------------------------|
GTR G|-------------------------|
 1  D|-1-----------------------|
    A|-1-(let ring + feedback)-|
    D|-1-----------------------|

    e|-----------------------------|---------|
    B|--------------|---2---2-1tr2-|---2---2-|
GTR G|--------------|-3---3--------|-3---3---|
 2  D|-1------------|--------------|---------| x3
    A|-1-(let ring)-|--------------|---------|
    D|-1------------|---- x2 ------|---------|
                      P M P M        P M P M

    e|----------------|
    B|----------------|
GTR G|-/17- feedback -|
1+2 D|----------------|
    A|----------------|
    D|----------------|

    e|--------------------------------|
    B|--------------------------------|
GTR G|-88888888888^8-13-11111111-1313-|
1+2 D|--------------------------------|
    A|-66666666666-6------------------|
    D|--------------------------------|

    e|--------------------------------|
    B|--------12p10-12p10-10-10-12-12-|
GTR G|-888888-------------------------|
 1  D|--------------------------------|
    A|-666666-------------------------|
    D|--------------------------------|

    e|--------11-9-9-9-9-11-11-|
    B|-------------------------|
GTR G|-888888------------------|
 2  D|-------------------------|
    A|-666666------------------|
    D|-------------------------|

    e|--------------------------|
    B|--------------------------|
GTR G|-888888-8/20-202020202020-|
1+2 D|--------------------------|
    A|-666666------181818181818-|
    D|--------------------------|

END
comments
We did not receive enough feedback on this tab! Please rate:
print report bad tab
1 2 3 4 5
I want to post or [tab]
guest
You may want to rate the tab now too:
select rating
Please do not post tabs as comments. Select "correction" instead!