Oops, an error
Loading. Please wait.

Mr Co Dexterity Tab

78 views 1 this week
no commentswrite comment
1 2 3 4 5
please rate
Autoscroll
+/-
esc
set tempo
stop
Contributor
Difficulty
Tuning
advanced
D# G# C# F# A# D#
WARNING: You are trying to view
                                    content from Ultimate-Guitar.com
                                    in an unauthorized application,
                                    which is prohibited.

                                    Please use an official Ultimate
                                    Guitar Tabs application for iPhone,
                                    iPad or Android to access legitimate
                                    chords, guitar, bass, and drum tabs
                                    from Ultimate-Guitar.com database.

                                    Type "ultimate guitar tabs" in Apple
                                    App Store's or Android Market's
                                    search to find the application.
CAVE IN - MR CO DEXTERITY
CBU = Continuous bend up

    eb|-------------------------------------|
    Bb|-------------------------------------|
GTR Gb|-------------------------------------|
1+2 Db|-------------------------------------|
    Ab|--2-22-2-22-2-22-2-22-2-22-2-22-2-22-|
    Eb|-/0-00-0-00-0-00-0-00-0-00-0-00-0-00-|
         PMPM PMPM PMPM PMPM PMPM PMPM PMPM

    eb|-------------------------------------|
    Bb|-------------------------------------|
GTR Gb|-------------------------------------|
 1  Db|-99999999-88888888-33333333-33333333-| x2
    Ab|-77777777-66666666-11111111-22222222-|
    Eb|-------------------------------------|
        PMPMPMPM PMPMPMPM PMPMPMPM PMPMPMPM

    eb|--------------------------------------|
    Bb|--------------------------------------|
GTR Gb|-99999999-88888888-33333333-333333333-|
 2  Db|--------------------------------------| x2
    Ab|-77777777-66666666-11111111-111111111-|
    Eb|--------------------------------------|

    eb|-----------------|
    Bb|-----------------|
GTR Gb|-----------------|
 1  Db|-2---------------| x8
    Ab|-2---------------|
    Eb|-0---------------|

    eb|--------------0--|
    Bb|-----------------|
GTR Gb|--------3--4-----|
 2  Db|-----------------| x8
    Ab|-----------------|
    Eb|-----------------|

    eb|-----------------------------------------------------|
    Bb|-----------------------------------------------------|
GTR Gb|-----------------------------------------------------|
1+2 Db|-----------------------------------------------------| x2
    Ab|-222222222222-111111111111-111111111111-111111111111-|
    Eb|-000000000000-000000000000-222222222222-333333333333-|
        PMPMPMPMPMPM PMPMPMPMPMPM PMPMPMPMPMPM PMPMPMPMPMPM

    eb|-------------------------------------------------|
    Bb|-------------------------------------------------|
GTR Gb|-------------------------------------------------|
 1  Db|-2-----------------------------------------------|
    Ab|-2-----------------------------------------------|
    Eb|-0-----------------------------------------------|

    eb|-------------------------------------------------|
    Bb|-------------------------------------------------|
GTR Gb|-------------------------------------------------|
 2  Db|-2----5\4-3/4-8-5-4\3-----2----5\4-3/4-8-5-11-11-|
    Ab|-2--2-3\2-1/2-6-3-2\1-5-4-2--2-3\2-1/2-6-3-9--9--|
    Eb|-0--0-----------------3-2-0--0-------------------|

    eb|-------------------------------------------------|
    Bb|-------------------------------------------------|
GTR Gb|-------------------------------------------------|
 1  Db|-2-----------------------------------------------|
    Ab|-2-----------------------------------------------|
    Eb|-0-----------------------------------------------|

    eb|-------------------------------------------------|
    Bb|-------------------------------------------------|
GTR Gb|-------------------------------------------------|
 2  Db|-2----5\4-3/4-8-5-4\3-----2----5\4-3/4-8---------|
    Ab|-2--2-3\2-1/2-6-3-2\1-5-4-2--2-3\2-1/2-6---------|
    Eb|-0--0-----------------3-2-0--0-------------------|

    eb|---------------------------|
    Bb|---------------------------|
GTR Gb|---------------------------|
1+2 Db|-------------------------3-| 1,3
    Ab|--22-2-2-222--22-2-2-22--3-|
    Eb|-/00-0-0-000--00-0-0-00--1-|

    eb|---------------------|
    Bb|---------------------|
GTR Gb|---------------------|
1+2 Db|-------------------3-| 2,4
    Ab|--222-2-222-22222--3-|
    Eb|-/000-0-000-00000--1-|

    eb|-------|
    Bb|-------|
GTR Gb|-----3-|
 1  Db|-4h5---|
    Ab|-------|
    Eb|-------|

    eb|---------------------------|
    Bb|---------------------------|
GTR Gb|---------------------------|
1+2 Db|-------------------------3-| 1,3
    Ab|--22-2-2-222--22-2-2-22--3-|
    Eb|-/00-0-0-000--00-0-0-00--1-|

    eb|---------------------|
    Bb|---------------------|
GTR Gb|---------------------|
1+2 Db|-------------------3-| 2,4
    Ab|--222-2-222-22222--3-|
    Eb|-/000-0-000-00000--1-|

    eb|--------------------------------------------|
    Bb|--------------------------------------------|
GTR Gb|--------------------------------------------|
 1  Db|-----8---8----8---8-------8---8---8-------8-| x2
    Ab|---7---7----7---7-----------6---6---6-----7-|
    Eb|-5------------------3/5-5--------------00-6-|
                                              PM

    eb|----------------------------------------------|
    Bb|----------------------------------------------|
GTR Gb|-------9--------8-----------8-------8---------|
 2  Db|---6/8-8-8--6/8-8-8-8-------6-7-----6-7-----8-| x2
    Ab|---7/9-9-9--7/9-9-9-9---------5-5/7---5-----7-|
    Eb|-5--------------------3/5-5-----3/5------00-6-|
                                                PM 

-----------------------------------------------------

    eb|---------------------------------|
    Bb|---------------------------------|
GTR Gb|---------------------------------|
1+2 Db|-3\2---4---5---4-1h2p1-----------|
    Ab|-3\2-2-2-2-3-2-2-------1h2p1-----|
    Eb|-1\0-0---0---0---------------3p2-|
           PM  PM  PM

    eb|-----------------------------------|
    Bb|--------------------------16-15-16-|
GTR Gb|-----------------15-11----14-14-14-|
1+2 Db|-3\2---4---5---4-------12----------|
    Ab|-3\2-2-2-2-3-2-2-------------------|
    Eb|-1\0-0---0---0---------------------|
           PM  PM  PM

    eb|--------------------------------------------------|
    Bb|--------------------------------------------------|
GTR Gb|--------------------------------------------------|
1+2 Db|-3\2---4---5---4-4------9---5---8---4-------------|
    Ab|-3\2-2-2-2-3-2-2-2------7-2-3-2-6-2-2-2-----------|
    Eb|-1\0-0---0---0---2-0000---0---0---0---0-1000-1000-|
           PM  PM  PM     PMPM  PM  PM  PM  PM PMPM PMPM

play whole section x3
-------------------------------------------------------


    eb|-----------|
    Bb|-----------|
GTR Gb|-3---------|
1+2 Db|-2---5-5-3-|
    Ab|-2---5-5-3-|
    Eb|-0---3-3-1-|

    eb|---------------------|
    Bb|---------------------|
GTR Gb|---------------------|
 1  Db|-------3--5--3-------|
    Ab|----2-----------5--3-|
    Eb|-0-------------------|

    eb|---------------------|
    Bb|---------------------|
GTR Gb|---------------------|
 2  Db|-------7--9--7-------|
    Ab|----7-----------9--7-|
    Eb|-4-------------------|

    eb|-----------------------------------|
    Bb|-----------------------------------|
GTR Gb|-----------------------------------|
1+2 Db|-----------------------------------|
    Ab|-33333333333333333-777777777777777-|
    Eb|-----------------------------------|

    eb|-------------------------------------|
    Bb|-------------------------------------|
GTR Gb|-------------------------------------|
 1  Db|-777777777777777h9-66666666666666666-|
    Ab|-------------------------------------|
    Eb|-------------------------------------|

    eb|-------------------------------------|
    Bb|-------------------------------------|
GTR Gb|-------------------------------------|
 2  Db|-77777777777777777-------------------|
    Ab|-------------------------------------|
    Eb|-------------------77777777777777777-|

    eb|----------------------------------|
    Bb|----------------------------------|
GTR Gb|-7-7/9---7\5----------------------|
 1  Db|-9-9/10--9\7-----------9p7-9/10---|
    Ab|----------------------------------|
    Eb|----------------------------------|

    eb|----------------------------------|
    Bb|----------------------------------|
GTR Gb|----------------------------------|
 2  Db|-10101010101010101010101010101010-|
    Ab|----------------------------------|
    Eb|----------------------------------|

--------------------------------------------------------------


    eb|-------15----------------------------15----------------------|
    Bb|----11----11----11-------11-------11----11----11-------11----|
GTR Gb|-14----------14----14-14----14-13----------13----13-13----13-|
 1  Db|-------------------------------------------------------------|
    Ab|-------------------------------------------------------------|
    Eb|-------------------------------------------------------------|

    eb|-------------------------------------------------------------|
    Bb|-------------------------------------------------------------|
GTR Gb|-------------------------------------------------------------|
 2  Db|-7777777777777777777777777777-66666666666666666666666666666--|
    Ab|-------------------------------------------------------------|
    Eb|-------------------------------------------------------------|

    eb|-------15----------------------------15----------------------|
    Bb|----11----11----11-------11-------11----11----11-------11----|
GTR Gb|-12----------12----12-12----12-10----------10----10-10----10-|
 1  Db|-------------------------------------------------------------|
    Ab|-------------------------------------------------------------|
    Eb|-------------------------------------------------------------|

    eb|-------------------------------------------------------------|
    Bb|-------------------------------------------------------11CBU-|
GTR Gb|-------------------------------------------------------------|
 2  Db|-55555555555555555555555555555-333333333333333333333333------|
    Ab|-------------------------------------------------------------|
    Eb|-------------------------------------------------------------|

play whole section x3
---------------------------------------------------------------

    eb|-------15----------------------------15----------------------|
    Bb|----11----11----11-------11-------11----11----11-------11----|
GTR Gb|-14----------14----14-14----14-13----------13----13-13----13-|
 1  Db|-------------------------------------------------------------|
    Ab|-------------------------------------------------------------|
    Eb|-------------------------------------------------------------|

    eb|-------------------------------------------------------------|
    Bb|-------------------------------------------------------------|
GTR Gb|----------------------14CBU----------------------------------|
 2  Db|-777777777777777777777--------66666666666666666666666666666--|
    Ab|-------------------------------------------------------------|
    Eb|-------------------------------------------------------------|

    eb|-------15----------------------|
    Bb|----11----11----11-------11----|
GTR Gb|-12----------12----12-12----12-|
 1  Db|-------------------------------|
    Ab|-------------------------------|
    Eb|-------------------------------|

    eb|-------------------------------|
    Bb|-------------------------------|
GTR Gb|-------------------------------|
 2  Db|-55555555555555555555555555555-|
    Ab|-------------------------------|
    Eb|-------------------------------|

------------------------------------------------------------

    eb|-----------------------------------------------------|
    Bb|-171717171717171717171717-15151515151515151515151515-|
GTR Gb|-----------------------------------------------------|
1+2 Db|-----------------------------------------------------|
    Ab|-----------------------------------------------------|
    Eb|-----------------------------------------------------|

    eb|-151515151515151515151515-191919191919191920CBU------|
    Bb|-----------------------------------------------------|
GTR Gb|-----------------------------------------------------|
1+2 Db|-----------------------------------------------------|
    Ab|-----------------------------------------------------|
    Eb|-----------------------------------------------------|

play whole section x3
-------------------------------------------------------------

    eb|---------------------------------|
    Bb|-17-sustain note-----------------|
GTR Gb|---------------------------------|
 1  Db|----------------------pick slide-|
    Ab|---------------------------------|
    Eb|---------------------------------|

    eb|---------------------------------|
    Bb|---------------------------------|
GTR Gb|---------------------------------|
 2  Db|-2-2-2-2-2-2-2-2-2-2-2-2-2-2-2-2-|
    Ab|-0-0-0-0-0-0-0-0-0-0-0-0-0-0-0-0-|
    Eb|---------------------------------|
        P M P M P M P M P M P M P M P M

    eb|----------------------------|
    Bb|----------------------------|
GTR Gb|-4--7-----------------------|
1+2 Db|-2--5--6--------------------|
    Ab|-------4--5-4-4-4-4-4-4-4-4-|
    Eb|----------3-2-2-2-2-2-2-2-2-|              

    eb|---------------------------|
    Bb|------0h4-4/5-5p4p0--------|
GTR Gb|------3--------------------|
 1  Db|---------------------3-----|
    Ab|-4-4-------------------5-3-|
    Eb|-2-2-----------------------|
        P M

    eb|---------------------------|
    Bb|---------------------------|
GTR Gb|---------------------------|
 2  Db|---------------------------|
    Ab|-4-4-----------------------|
    Eb|-2-2-----------------------|
        P M

    eb|---------------------------------------------------------|
    Bb|---------------------------------------------------------|
GTR Gb|---------------------------4--------------3--------------|
 1  Db|-----4/5---9\8---4/5---4-4-4-444-444-4444-3-333-333-3333-|
    Ab|-2-2-2/3-2-7\6-2-3/2-2-2-2-2-222-222-2222-1-111-111-1111-|
    Eb|-0-0-----0-----0-----0-2-2-------------------------------|
        P M    PM    PM    PM       P M P M PMPM   P M P M PMPM

    eb|----------------------------------------------------------|
    Bb|----------------------------------------------------------|
GTR Gb|---------------------------4--------------3---------------|
 2  Db|-----4/5---9\8---4/5---4-4-4-444-444-4444-3-333-----------|
    Ab|-2-2-2/3-2-7\6-2-3/2-2-2-2-2-222-222-2222-1-111-6h7p6-----|
    Eb|-0-0-----0-----0-----0-2-2----------------------------7\0-|
        P M    PM    PM    PM       P M P M PMPM   P M

    eb|---------------------------|-- x4 --|-- x4 --|
    Bb|---------------------------|--------|--------|
GTR Gb|---------------------------|--------|--------|
1+2 Db|-----4/5---9\8---4/5---4-4-|-4------|-3------|
    Ab|-2-2-2/3-2-7\6-2-3/2-2-2-2-|-2------|-1------|
    Eb|-0-0-----0-----0-----0-2-2-|---2101-|---2101-|
        P M    PM    PM    PM         PMPM     PMPM

    eb|----------------------------|
    Bb|----------------------------|
GTR Gb|-4--7-----------------------|
1+2 Db|-2--5--6--------------------|
    Ab|-------4--5-4-4-4-4-4-4-4-4-|
    Eb|----------3-2-2-2-2-2-2-2-2-|              

    eb|---------------------------|
    Bb|------0h4-4/5-5p4p0--------|
GTR Gb|------3--------------------|
 1  Db|---------------------3-----|
    Ab|-4-4-------------------5-3-|
    Eb|-2-2-----------------------|
        P M

    eb|-----------------|
    Bb|-----------------|
GTR Gb|-----------------|
 1  Db|-2---------------| 1,2,5,6
    Ab|-2---------------|
    Eb|-0---------------|

    eb|--------------0--|
    Bb|-----------------|
GTR Gb|--------3--4-----|
 2  Db|-----------------| 1,2,5,6
    Ab|-----------------|
    Eb|-----------------|

    eb|------------------------------|
    Bb|-0--------------0-------------|
GTR Gb|-4--------------4-------------|
 1  Db|-4--------------4-------------| 3,4,7,8
    Ab|-3--------------3-------------|
    Eb|------------------------------|

    eb|----------0--------------0----|
    Bb|-------------3--------------3-|
GTR Gb|-------4--------------4-------|
 2  Db|----4--------------4----------| 3,4,7,8
    Ab|-3--------------3-------------|
    Eb|------------------------------|

    eb|---------------------------------------------------------|
    Bb|---------------------------------------------------------|
GTR Gb|---------------------------4--------------3--------------|
 1  Db|-----4/5---9\8---4/5---4-4-4-444-444-4444-3-333-333-3333-|
    Ab|-2-2-2/3-2-7\6-2-3/2-2-2-2-2-222-222-2222-1-111-111-1111-|
    Eb|-0-0-----0-----0-----0-2-2-------------------------------|
        P M    PM    PM    PM       P M P M PMPM   P M P M PMPM

    eb|----------------------------------------------------------|
    Bb|----------------------------------------------------------|
GTR Gb|---------------------------4--------------3---------------|
 2  Db|-----4/5---9\8---4/5---4-4-4-444-444-4444-3-333-----------|
    Ab|-2-2-2/3-2-7\6-2-3/2-2-2-2-2-222-222-2222-1-111-6h7p6-----|
    Eb|-0-0-----0-----0-----0-2-2----------------------------7\0-|
        P M    PM    PM    PM       P M P M PMPM   P M

    eb|---------------------------|-- x4 --|-- x4 --|
    Bb|---------------------------|--------|--------|
GTR Gb|---------------------------|--------|--------|
1+2 Db|-----4/5---9\8---4/5---4-4-|-4------|-3------|
    Ab|-2-2-2/3-2-7\6-2-3/2-2-2-2-|-2------|-1------|
    Eb|-0-0-----0-----0-----0-2-2-|---2101-|---2101-|
        P M    PM    PM    PM         PMPM     PMPM

    eb|----------------------------|
    Bb|----------------------------|
GTR Gb|-4--7-----------------------|
1+2 Db|-2--5--6--------------------|
    Ab|-------4--5-4-4-4-4-4-4-4-4-|
    Eb|----------3-2-2-2-2-2-2-2-2-|

    eb|----------------------|
    Bb|----------------------|
GTR Gb|----------------------|
 1  Db|-------2--4-----------|
    Ab|-1--4--------5--4--1--|
    Eb|----------------------|

    eb|----------------------|
    Bb|----------------------|
GTR Gb|-------5--7-----------|
 2  Db|-3--6--------8--7--4--|
    Ab|----------------------|
    Eb|----------------------|

-------------------------------------------------

    eb|-----------------------------------|
    Bb|-----------------------------------|
GTR Gb|-----------------------------------|
 1  Db|-3\2-------------4---5---7---7/9\8-| x3
    Ab|-3\2-2-2-2-2-2-2-2-2-3-2-5-2-5/7\6-|
    Eb|-1\0-0-0-0-0-0-0---0---0---0-------|
            P M P M P M  PM  PM

    eb|-----------------------------------|
    Bb|-----------------------------------|
GTR Gb|-----------------------------------|
 2  Db|-3\2-------------4---5---7---1h3p2-| x3
    Ab|-3\2-2-2-2-2-2-2-2-2-3-2-5-2-------|
    Eb|-1\0-0-0-0-0-0-0---0---0---0-------|
            P M P M P M  PM  PM  PM

    eb|----------------------------------------------------|
    Bb|----------------------------------------------------|
GTR Gb|----------------------------------------------------|
1+2 Db|-3\2---4---5---7---8------9---5---8---4-------------|
    Ab|-3\2-2-2-2-3-2-5-2-6------7-2-3-2-6-2-2-2-----------|
    Eb|-1\0-0---0---0---0---0000---0---0---0---0-1000-1000-|
           PM  PM  PM  PM   PMPM  PM  PM  PM  PM PMPM PMPM

play whole section x2
--------------------------------------------------

    eb|------------|
    Bb|------------|
GTR Gb|------3-3---|
1+2 Db|-2----2-2-3-|
    Ab|-2----2-2-2-|
    Eb|-0----0-0-0-|

--------------------------------------------------

    eb|-----------------------------------|
    Bb|-----------------------------------|
GTR Gb|-----------------------------------|
 1  Db|-3\2-------------4---5---7---7/9\8-| x3
    Ab|-3\2-2-2-2-2-2-2-2-2-3-2-5-2-5/7\6-|
    Eb|-1\0-0-0-0-0-0-0---0---0---0-------|
            P M P M P M  PM  PM

    eb|-----------------------------------|
    Bb|-----------------------------------|
GTR Gb|-----------------------------------|
 2  Db|-3\2-------------4---5---7---1h3p2-| x3
    Ab|-3\2-2-2-2-2-2-2-2-2-3-2-5-2-------|
    Eb|-1\0-0-0-0-0-0-0---0---0---0-------|
            P M P M P M  PM  PM  PM

    eb|----------------------------------------------------|
    Bb|----------------------------------------------------|
GTR Gb|----------------------------------------------------|
1+2 Db|-3\2---4---5---7---8------9---5---8---4-------------|
    Ab|-3\2-2-2-2-3-2-5-2-6------7-2-3-2-6-2-2-2-----------|
    Eb|-1\0-0---0---0---0---0000---0---0---0---0-1000-1000-|
           PM  PM  PM  PM   PMPM  PM  PM  PM  PM PMPM PMPM

play whole section x2
--------------------------------------------------------

    eb|---------------------------|
    Bb|---------------------------|
GTR Gb|---------------------------|
1+2 Db|-9---5---8---4-------------| x3
    Ab|-7-2-3-2-6-2-2-2-----------|
    Eb|---0---0---0---0-1000-1000-|
         PM  PM  PM  PM PMPM PMPM

    eb|--------------------|
    Bb|--------------------|
GTR Gb|------3-3---3-------|
1+2 Db|-2----2-2-3-2-------|
    Ab|-2----2-2-2-2-------|
    Eb|-0----0-0-0-0-------|

END. OH MY GOD.
comments
We did not receive enough feedback on this tab! Please rate:
1 2 3 4 5
I want to post or [tab]
guest
You may want to rate the tab now too:
select rating
Please do not post tabs as comments. Select "correction" instead!