Oops, an error
Loading. Please wait.

Programmed Behind Tab

185 views 3 this week
no commentswrite comment
1 2 3 4 5
excellent!
x 1
Autoscroll
+/-
esc
set tempo
stop
Contributor
Difficulty
Tuning
intermediate
D A D G B E
Hey! There's an official Ultimate Guitar app which is ideal
for learning songs when you're away from computer. Get the app
WARNING: You are trying to view
                                    content from Ultimate-Guitar.com
                                    in an unauthorized application,
                                    which is prohibited.

                                    Please use an official Ultimate
                                    Guitar Tabs application for iPhone,
                                    iPad or Android to access legitimate
                                    chords, guitar, bass, and drum tabs
                                    from Ultimate-Guitar.com database.

                                    Type "ultimate guitar tabs" in Apple
                                    App Store's or Android Market's
                                    search to find the application.
CAVE IN - PROGRAMMED BEHIND

Pretty sure cave in play in Eb, but I tabbed it in D anyway

    E|-------------------------|
    B|-------------------------|
GTR G|-12-11-9-11--------------|    
1+2 D|-10-9--7-10--------------|              
    A|-10-9--7-10--22-22-22-22-|
    D|-10-9--7-10--22-22-22-22-|
                   PM PM PM PM

    E|---------------|
    B|---------------|
GTR G|-12-11-9-11-12-|    
1+2 D|-10-9--7-10-10-|              
    A|-10-9--7-10-10-|
    D|-10-9--7-10-10-|

    E|-------------------------------------12-12-12-12-|
    B|-12-12-12-12-12-12-12-12-12-12-12-12-12-12-12-12-|
GTR G|-------------9--9--9--9--------------------------|    
1+2 D|-10-10-10-10-10-10-10-10-10-10-10-10-10-10-10-10-|              
    A|-------------------------------------------------|
    D|-------------------------------------------------|


    E|-------------------------|
    B|-------------------------|
GTR G|-12-11-9-11--------------|    
 1  D|-10-9--7-10--------------|              
    A|-10-9--7-10--22-22-22-22-|
    D|-10-9--7-10--22-22-22-22-|
                   PM PM PM PM

    E|---------------------------------|
    B|---------------------------------|
GTR G|-12-11-9-11----------------------|    
 2  D|-10-9--7-10--------------4h5p4p2-|              
    A|-10-9--7-10--22-22-22-22---------|
    D|-10-9--7-10--22-22-22-22---------|
                   PM PM PM PM

    
    E|---------------|
    B|---------------|
GTR G|-12-11-9-11-12-|    
1+2 D|-10-9--7-10-10-|              
    A|-10-9--7-10-10-|
    D|-10-9--7-10-10-|

    E|-------------------------14-14-14-14-12-12-12-12-|
    B|-12-12-12-12-12-12-12-12-12-12-12-12-12-12-12-12-|
GTR G|-------------9--9--9--9--------------------------|    
1+2 D|-10-10-10-10-10-10-10-10-10-10-10-10-10-10-10-10-|              
    A|-------------------------------------------------|
    D|-------------------------------------------------|

    E|-------------------14-14-14-14-12-12-12-12-|
    B|-12121212-12121212-12-12-12-12-12-12-12-12-|
GTR G|----------9-9-9-9--------------------------|    
1+2 D|-10101010-10101010-10-10-10-10-10-10-10-10-|              
    A|-------------------------------------------|
    D|-------------------------------------------|

    E|----------------------------------|
    B|----------------------------------|
GTR G|----------------------------------|    
 1  D|----------------------------------|              
    A|-2-2-2-2-2-2-2-2--5-5-5-5-5-5-5-5-|
    D|-2-2-2-2-2-2-2-2--5-5-5-5-5-5-5-5-|
       PM PM PM PM PM   PM PM PM PM PM

    E|------------------------------------|
    B|------------------------------------|
GTR G|11p9p7h9-11p9p7h9-11p9p7h9-11p9p7h9-|    
 2  D|------------------------------------|              
    A|------------------------------------|
    D|------------------------------------|

    E|---------------------------|
    B|---------------------------|
GTR G|-12-11-9-11--12-11-9-11-12-|    
1+2 D|-10-9--7-10--10-9--7-10-10-|              
    A|-10-9--7-10--10-9--7-10-10-|
    D|-10-9--7-10--10-9--7-10-10-|


    E|------------------------------------------------|
    B|------------------------------------------------|
GTR G|-4------4--9--11--7--12-14-14-14-14-16-16-16-16-|    
 1  D|-2------2---------------------------------------|              
    A|-2-0000-2---------------12-12-12-12-14-14-14-14-|
    D|-2-0000-2---------------------------------------|
   
    E|--------------------------------------------------------|
    B|--------------------------------------------------------|
GTR G|-4------4-9-11-7-12-14-14-14-14-16-16-16-16h17p16-------|    
 2  D|-2------2-----------------------------------------17p16-|              
    A|-2-0000-2-----------12-12-12-12-14-14-14----------------|
    D|-2-0000-2-----------------------------------------------|
         PMPM


    E|-------------------------|
    B|---------------------/17-|
GTR G|-4------4--9--11--7------|    
 1  D|-2------2----------------|              
    A|-2-0000-2----------------|
    D|-2-0000-2----------------|

    E|-------------------------|
    B|---------------------12--|
GTR G|-4------4--9--11--7------|    
 2  D|-2------2----------------|              
    A|-2-0000-2----------------|
    D|-2-0000-2----------------|

    E|----------------------------------|
    B|----------------------------------|
GTR G|----------------------------------|    
 1  D|----------------------------------|              
    A|-2-2-2-2-2-2-2-2--5-5-5-5-5-5-5-5-|
    D|-2-2-2-2-2-2-2-2--5-5-5-5-5-5-5-5-|
       PM PM PM PM PM   PM PM PM PM PM

    E|---------------------------------------|
    B|---------------------------------------|
GTR G|11p9p7h9-11p9p7h9-11p9p7h9-11h12p11----|    
 2  D|---------------------------------------|              
    A|------------------------------------12-|
    D|---------------------------------------|

    E|------------------------|
    B|------------------------|
GTR G|-12-11-9-11-------6-----|    
1+2 D|-10-9--7-10-------5-----|              
    A|-10-9--7-10-2-3-4-5-3-3-|
    D|-10-9--7-10-2-3-4-5-3-3-|
                  PM PM   P M

    E|-------------------------------------------------|
    B|-------------------------------------------------|
GTR G|-------------------------------------------------|    
1+2 D|-----------1p0----------1p0----------1-0---------| x4             
    A|-22222-2h3-----2222-2h3-----2222-2h3-----2-1-0-3-|
    D|-22222---------2222---------2222-----------------|
        PMPM         PMPM         PMPM  

    E|-----------------|
    B|-----------------|
GTR G|-4---------------|    
1+2 D|-4---------------|              
    A|-2-(LET RING)----|
    D|-2---------------|


    E|--------------------------------------------------------|
    B|--------------------------------------------------------|
GTR G|-8------8-----------8---------8-------8-------------8-9-|    
 1  D|---9------9-------9---9---------9-------9---------9-----|              
    A|-----9------9---1-------9---------9-------9----11-------|
    D|--------------------------------------------------------|

    E|-----------------------------------|
    B|-----------------------------------|
GTR G|-8----9----10----9----8----6---3---|    
1+2 D|-------------------------------1---| 1,3,5,7              
    A|-7-00-8-00-8--00-8-00-7-00-5-0-2---|
    D|---00---00----00---00---00---0-2---|
         PM   PM    PM   PM   PM   PM

    E|-----------------------------------|
    B|-----------------------------------|
GTR G|-8----9----10----9----13\11-11\8-4-|    
1+2 D|-----------------------------------| 2,6          
    A|-7-00-8-00-8--00-8-00-12\10-10\7-3-|
    D|---00---00----00---00--------------|
         PM   PM    PM   PM   

    E|-----------------------------------|
    B|-----------------------------------|
GTR G|-8----9----10----9----4/5----5/6---|    
1+2 D|-----------------------------------| 4         
    A|-7-00-8-00-8--00-8-00-3/4----4/5---|
    D|---00---00----00---00--------------|
         PM   PM    PM   PM   

    E|----------------------------------|
    B|----------------------------------|
GTR G|-8----9----10----9----------------|    
1+2 D|----------------------------------| 8         
    A|-7-00-8-00-8--00-8-11-10-8---10-8-|
    D|---00---00----00---11-10-8---10-8-|
         PM   PM    PM         PM

    E|----6p5-----------------------|
    B|--------6---------------------|
GTR G|------------------------------|    
1+2 D|-8----------------------------|              
    A|-8--------2-2-2---2-2-2---2-2-|
    D|-8--------2-2-2---2-2-2---2-2-|
                P M PM  P M PM  P M

    E|-6p5--------------------------|
    B|-----5h6----------------------|
GTR G|------------------------------|    
1+2 D|------------------------------|              
    A|---------3-3-3---3-3-3---3-3--|
    D|---------3-3-3---3-3-3---3-3--|
               P M PM  P M PM  P M

    E|-6p5-----------------------6p5------------------------|
    B|-----5h6-----------------------5h6--------------------|
GTR G|------------------------------------------------------|    
1+2 D|------------------------------------------------------|              
    A|---------2-2-2--2-2-2--2-2---------3-3-3--3-3-3---3-3-|
    D|---------2-2-2--2-2-2--2-2---------3-3-3--3-3-3---3-3-|
               P M PM P M PM P M         P M PM P M PM  P M

    E|-6p5-------------------|
    B|-----5h6---------------|
GTR G|-----------------------|    
 1  D|-----------2-----2---2-|              
    A|---------2-2-2-2-2-2-2-|
    D|---------2-2-2-2-2-2-2-|
              PM   P M   PM

    E|-----------------------|
    B|-----------------------|
GTR G|-----------------------|    
 2  D|-----2h3---2-----2---2-|              
    A|-0h2-----2-2-2-2-2-2-2-|
    D|---------2-2-2-2-2-2-2-|
              PM   P M   PM

    E|-6p5-----------------------|
    B|-----5h6-------------------|
GTR G|---------------------------|    
 1  D|---------------3-----3---3-| 1,3,5,7              
    A|---------3-3-3-3-3-3-3-3-3-|
    D|---------3-3-3-3-3-3-3-3-3-|
               P M PM  P M  PM

    E|---------------------------|
    B|---------------------------|
GTR G|---------------------------|    
 2  D|-----2h3-------3-----3---3-| 1,3,5,7             
    A|-0h2-----3-3-3-3-3-3-3-3-3-|
    D|---------3-3-3-3-3-3-3-3-3-|
               P M PM  P M  PM

    E|-6p5-----------------------|
    B|-----5h6-------------------|
GTR G|---------------------------|    
 1  D|---------------2-----2---2-| 2,4,6              
    A|---------2-2-2-2-2-2-2-2-2-|
    D|---------2-2-2-2-2-2-2-2-2-|
               P M PM  P M  PM

    E|---------------------------|
    B|---------------------------|
GTR G|---------------------------|    
 2  D|-----2h3-------2-----2---2-| 2,4,6             
    A|-0h2-----2-2-2-2-2-2-2-2-2-|
    D|---------2-2-2-2-2-2-2-2-2-|
               P M PM  P M  PM

    E|------------------------------------------------------|
    B|------------------------------------------------------|
GTR G|-9999999-11111111111111-12121212121212-11111111111111-|    
1+2 D|------------------------------------------------------|              
    A|-7777777-9-9-9-9-9-9-9--10101010101010-9-9-9-9-9-9-9--|
    D|------------------------------------------------------|

    E|--------------------------------------------------------|
    B|------------------------12121212121212-1515151515151515-|
GTR G|-9999999-11111111111111---------------------------------|    
1+2 D|------------------------9-9-9-9-9-9-9--1212121212121212-|              
    A|-7777777-9-9-9-9-9-9-9----------------------------------|
    D|--------------------------------------------------------|


    E|------------------------------------------------------|
    B|------------------------------------------------------|
GTR G|-9999999-11111111111111-12121212121212-11111111111111-|    
 1  D|------------------------------------------------------|              
    A|-7777777-9-9-9-9-9-9-9--10101010101010-9-9-9-9-9-9-9--|
    D|------------------------------------------------------|
   
    E|------------------------------------------------------|
    B|---------------------------------------15---13---12---|
GTR G|-9999999-11111111111111-12121212121212----------------|    
 2  D|------------------------------------------------------|              
    A|-7777777-9-9-9-9-9-9-9--10101010101010----------------|
    D|------------------------------------------------------|

    E|------------------------------------------------------|
    B|------------------------12121212121212-15151515151515-|
GTR G|-9999999-11111111111111-------------------------------|    
 1  D|------------------------9-9-9-9-9-9-9--12121212121212-|              
    A|-7777777-9-9-9-9-9-9-9--------------------------------|
    D|------------------------------------------------------|

    E|------------------------------------------------------|
    B|------------------------12121212121212--15^-----------|
GTR G|-9999999-11111111111111-----------------17^-----------|    
 2  D|------------------------9-9-9-9-9-9-9-----------------|              
    A|-7777777-9-9-9-9-9-9-9--------------------------------|
    D|------------------------------------------------------|          
    A|-77777777-9-9-9-9-9-9-9-9-----------------------------|
    D|------------------------------------------------------|

    E|----------------------|
    B|----------------------|
GTR G|-12-11-9-11-----------|    
1+2 D|-10-9--7-10-----------| x4              
    A|-10-9--7-10--22-22-22-|
    D|-10-9--7-10--22-22-22-|
                   PM PM PM 

END

Email any suggestions / corrections to thisisourstruggle@hotmail.co.uk
comments
We did not receive enough feedback on this tab! Please rate:
print report bad tab
1 2 3 4 5
I want to post or [tab]
guest
You may want to rate the tab now too:
select rating
Please do not post tabs as comments. Select "correction" instead!