Oops, an error
Loading. Please wait.

Titanic Tab

ver2
ver2

Whole song

More versions @911Tabs.com
204,077 views 586 this week
4 commentsread comments
1 2 3 4 5
excellent!
x 48
Autoscroll
+/-
esc
set tempo
stop
Hey! There's an official Ultimate Guitar app which is ideal
for learning songs when you're away from computer. Get the app
WARNING: You are trying to view
                                    content from Ultimate-Guitar.com
                                    in an unauthorized application,
                                    which is prohibited.

                                    Please use an official Ultimate
                                    Guitar Tabs application for iPhone,
                                    iPad or Android to access legitimate
                                    chords, guitar, bass, and drum tabs
                                    from Ultimate-Guitar.com database.

                                    Type "ultimate guitar tabs" in Apple
                                    App Store's or Android Market's
                                    search to find the application.
that is a slow song
s= slide
( )= hold

1-------(4)------(7)--5-4-0----------(4)------(7)----7-(9)-7-(2)------------|
2---5-7----7-5-7------------2-0--5-7-----7-5-7-----9------------------------|
3----------------------------2----------------------------------------------|
4---------------------------------------------------------------------------|
5---------------------------------------------------------------------------|
6---------------------------------------------------------------------------|

1---------------------------------------------------------------------------|
2----------------------------9----------------------------------------------|
3---(9)-9-9-9-8-9--9-8-9--11---11--9-9-9-9-8-9--8---------------------------|
4-------------------------------------------------(9)-----------------------|
5---------------------------------------------------------------------------|
6---------------------------------------------------------------------------|

1---------------------------------------------------------------------------|
2--------------(12)-10-9-7--9-10-9--7-5-4-5--5-4-5--7-(9)-(7)-(5)-----------|
3---(9)-(11)-5--------------------------------------------------------------|
4---------------------------------------------------------------------------|
5---------------------------------------------------------------------------|
6---------------------------------------------------------------------------|

1-------(4)------(7)--5-4-0----------(4)------(7)----7-(9)-7-(2)------------|
2---5-7----7-5-7------------2-0--5-7-----7-5-7-----9------------------------|
3----------------------------2----------------------------------------------|
4---------------------------------------------------------------------------|
5---------------------------------------------------------------------------|
6---------------------------------------------------------------------------|
comments
print report bad tab
4 comments total. Showing first comments.
+3 reply
salamenco wrote on September 26 2011, 11:36 am

I was just wondering ist the third note in the third row allright?(G string 5 fret) it sounds a bit funny

+3 reply
Guitarspree wrote on April 8 2012, 12:17 pm

I agree with Salemenco. It should be G string, 4th fret.

+1 reply
Mars Sevenfold wrote on July 31 2013, 08:39 am

you should tab out the whole song.. please?

but it sound great!! good tabs bro.. so i give u 4*

I want to post or [tab]
guest
You may want to rate the tab now too:
select rating
Please do not post tabs as comments. Select "correction" instead!