Oops, an error
Loading. Please wait.

Ground Tab

1,587 views 3 this week
5 commentsread comments
1 2 3 4 5
worth learning
x 2
add to favorites launch autoscroll
font size
0
reset
Autoscroll
+/-
esc
set tempo
stop
Contributor
Difficulty
novice
WARNING: You are trying to view
                                    content from Ultimate-Guitar.com
                                    in an unauthorized application,
                                    which is prohibited.

                                    Please use an official Ultimate
                                    Guitar Tabs application for iPhone,
                                    iPad or Android to access legitimate
                                    chords, guitar, bass, and drum tabs
                                    from Ultimate-Guitar.com database.

                                    Type "ultimate guitar tabs" in Apple
                                    App Store's or Android Market's
                                    search to find the application.
Artist: Celtic Frost
Song: Ground

Tuning:     tune down all strings one step and drop the low string
(high to low):D-A-F-C-G-C

s = staccato
b = bend string
h = hammer on

The Guitar sound is very heavy and you will have to play with very much Gain to get it right :)

Riff 1  (Intro)
D|----------------------------------|
A|----------------------------------|
F|----------------------------------|
C|-1--1----0--0----3--3----2--2-----|
G|-1--1----0--0----3--3----2--2-----|
C|-1--1----0--0----3--3----2--2-----|

Riff 2  (Verse)
D|------------------------------------------------|
A|------------------------------------------------|
F|------------------------------------------------|
C|------------------------------------------------|
G|------------------------------------------------|
C|-1h0-0-0-1h0-0-0-1h0-0-0-1b-1b-1b---------------|

Riff 3  (Chorus)
D|------------------------------------------------------|
A|------------------------------------------------------|
F|------------------------------------------------------|
C|-1-1-1-1--0-0-0-0-------------3-3-3-3--2-2-2-2--------|
G|-1-1-1-1--0-0-0-0-------------3-3-3-3--2-2-2-2--------|
C|-1-1-1-1--0-0-0-0-------------3-3-3-3--2-2-2-2--------|
                  s                            s

Riff 4  (Interlude)
D|------------------------------|
A|------------------------------|
F|------------------------------|
C|-1-1--1-1--1-1--1-1-----------|
G|-1-1--1-1--1-1--1-1-----------|
C|-1-1--1-1--1-1--1-1-----------|
     s    s    s    s

Play Riffs in this order:
-Riff 1      6x
-Riff 2     18x
-Riff 3      4x
-Riff 4      4x
-Riff 2      4x while a second Guitar does something with the whammy bar
                (listen to the song and you will understand what I mean)
-Riff 1      4x
-Riff 3      2x
-Riff 4      1x(just play the first 4 chords)
-Riff 3      4x

This Song is easy to play, because the riffs are very simple and slow :)
If you want to comment or correct this Tab, e-mail me:
A_Benz@gmx.de
comments
We did not receive enough feedback on this tab! Please rate:
1 2 3 4 5
5 comments total. Showing first comments.
0 reply
mr. riff wrote on January 12 2007, 10:51 pm

I play the intro like this:

Tuning Bb-F-Bb-Eb-G-C

C|-------------------------------|
G|-------------------------------|
Eb|-------------------------------|
Bb|4-4-4-4-3-3-3-3-1-1-1-1-0-0-0-0|
F|4-4-4-4-3-3-3-3-1-1-1-1-0-0-0-0|
Bb|4-4-4-4-3-3-3-3-1-1-1-1-0-0-0-0|

0 reply
Chill 02 wrote on April 11 2007, 11:31 pm

The tuning's wrong. They play in B.

0 reply
Chill 02 wrote on April 11 2007, 11:37 pm

For starters, the intro should be like:

B|-------------------------------|
#F|------------------------------|
D|-------------------------------|
A|5-5-5-5-4-4-4-4-9-9-9-9-8-8-8-8|
E|5-5-5-5-4-4-4-4-7-7-7-7-6-6-6-6|
B|3-3-3-3-2-2-2-2-7-7-7-7-6-6-6-6|

I want to post or [tab]
guest
You may want to rate the tab now too:
select rating
Please do not post tabs as comments. Select "correction" instead!