Oops, an error
Loading. Please wait.

Love Chronicle Tab

290 views 1 this week
no commentswrite comment
1 2 3 4 5
please rate
Autoscroll
+/-
esc
set tempo
stop
Contributor
Difficulty
intermediate
Hey! There's an official Ultimate Guitar app which is ideal
for learning songs when you're away from computer. Get the app
WARNING: You are trying to view
                                    content from Ultimate-Guitar.com
                                    in an unauthorized application,
                                    which is prohibited.

                                    Please use an official Ultimate
                                    Guitar Tabs application for iPhone,
                                    iPad or Android to access legitimate
                                    chords, guitar, bass, and drum tabs
                                    from Ultimate-Guitar.com database.

                                    Type "ultimate guitar tabs" in Apple
                                    App Store's or Android Market's
                                    search to find the application.
     E  E  E  Q    E  Q       E  E  E  Q    E  Q       E  E  E  Q    E  Q     
E||------------------------|------------------------|------------------------|
B||-----------1------------|-----------1------------|-----------1------------|
G||------------------------|------------------------|------------------------|
D||--3-----3-------3-------|--3-----3-------3-------|--3-----3-------3-------|
A||-----3-------------3----|-----3-------------3----|-----3-------------3----|
E||------------------------|------------------------|------------------------|


  Q    Q    Q    Q       E  E  E  Q    E  Q       E  E  E  Q    E  Q     
----------------------|------------------------|------------------------|
----------------------|-----------1------------|-----------1------------|
--2----0--------------|------------------------|------------------------|
------------3----2----|--3-----3-------3-------|--3-----3-------3-------|
----------------------|-----3-------------3----|-----3-------------3----|
----------------------|------------------------|------------------------|


  E  E  E  Q    E  Q       H        E  Q.        Q    E  H        E   
------------------------|-----------1--0------|----------------------|
-----------1------------|---------------------|--3----1--1--------L--|
------------------------|--0------------------|----------------------|
--3-----3-------3-------|---------------------|----------------------|
-----3-------------3----|--1------------------|----------------------|
------------------------|---------------------|----------------------|


  H        E  Q.        H        Q    Q       Q    E  H        E   
-----------1--0------|--0--------0---------|----------0-----------|
---------------------|----------------3----|--2----3--------------|
---------------------|---------------------|-------------------2--|
---------------------|---------------------|----------------------|
---------------------|---------------------|----------------------|
---------------------|---------------------|----------------------|


  Q    E  H        E     Q    E  Q.     E  E     W                 
--1----3--1--------L--|--1----3--1------------|-------------------|
----------------------|-----------------1--3--|--L----------------|
----------------------|-----------------------|-------------------|
----------------------|-----------------------|-------------------|
----------------------|-----------------------|-------------------|
----------------------|-----------------------|-------------------|


  Q    E  E  E  Q.        H        Q    Q       Q    E  H        E   
-------------0--1------|-----------0----1----|--0-------------------|
----------3------------|--3------------------|-------3--1--------1--|
-----------------------|--0------------------|----------------------|
-----------------------|---------------------|----------------------|
-----------------------|---------------------|----------------------|
-----------------------|---------------------|----------------------|


  Q    Q    Q    E  E     Q    E  H        E     Q    Q    Q    E  E   
--3----3----3----3--5--|--3----1--1--------1--|--1----0---------0--1--|
-----------------------|----------------------|------------3----------|
-----------------------|----------------------|-----------------------|
-----------------------|----------------------|-----------------------|
-----------------------|----------------------|-----------------------|
-----------------------|----------------------|-----------------------|


  H        Q.     E     Q    Q    Q    E  E     W                 
--L---------------1--|--1----3----3----------|-------------------|
---------------------|-----------------------|-------------------|
-----------2---------|-----------------2--2--|--L----------------|
---------------------|-----------------------|-------------------|
---------------------|-----------------------|-------------------|
---------------------|-----------------------|-------------------|


  H        Q    E  E     Q    Q    Q    Q       Q    E  H        E   
-----------0----1--0--|--L---------5----3----|--3----1--1--------L--|
--3-------------------|------------5---------|----------------------|
--3-------------------|-------2--------------|----------------------|
----------------------|----------------------|----------------------|
----------------------|----------------------|----------------------|
----------------------|----------------------|----------------------|


  H        Q    E  E     Q    Q    Q    E  E     Q    E  E  Q    Q     
----------------------|-------1----1----1--0--|--L----------5----3----|
-------------------1--|--3--------------------|-----------------------|
----------------------|-----------------------|-------2--2------------|
----------------------|-----------------------|-----------------------|
----------------------|-----------------------|-----------------------|
----------------------|-----------------------|-----------------------|


  Q    E  H        E     Q    E  E  E  E  E  E     Q    E  H        E   
--3----5--5--------L--|----------5--5--5--3--1--|-------1--1--------L--|
----------------------|-------------------------|--3-------------------|
----------------------|-------------------------|----------------------|
----------------------|-------------------------|----------------------|
----------------------|-------------------------|----------------------|
----------------------|-------------------------|----------------------|


  Q    E  H        E     Q    E  Q.     Q       Q    E  H        E   
-------1--1--------L--|-------0--1------1----|-------1--1--------L--|
--1-------------------|--3-------------------|--3-------------------|
----------------------|----------------------|----------------------|
----------------------|----------------------|----------------------|
----------------------|----------------------|----------------------|
----------------------|----------------------|----------------------|


  Q    E  Q.     Q       Q    E  Q.     E  E     Q    E  H        E   
-------0--1------1----|-------0--1------1--3--|--3-------------------|
--1-------------------|--1--------------------|----------------------|
----------------------|-----------------------|-------2--2--------L--|
----------------------|-----------------------|----------------------|
----------------------|-----------------------|----------------------|
----------------------|-----------------------|----------------------|


  H        Q    E  E     H        H           Q    E  E  E  E  E  E   
-----------3----------|--------------------|----------5--7--5--3--1--|
----------------------|--------------------|-------------------3--3--|
----------------2--2--|--L-----------------|-------------------------|
----------------------|--------------------|-------------------------|
----------------------|--------------------|-------------------------|
----------------------|--------------------|-------------------------|


  Q    E  E  Q.     E     Q    E  E  Q    Q       Q    E  H        E   
-------5--5--L------5--|--3----1--3--L----1----|--3----5--1--------1--|
--0----6--6--L---------|--5-------5--L----1----|--5----6--1--------1--|
--7--------------------|-------2---------------|----------------------|
-----------------------|-----------------------|----------------------|
-----------------------|-----------------------|----------------------|
-----------------------|-----------------------|----------------------|


  Q    E  H        E     Q    E  E  Q.     E     Q    E  E  Q    Q     
--3----5--1-----------|-------5--5--L------5--|--3----1--3--L----1----|
-------------------1--|--3----6--6--L---------|--5-------5--L----1----|
--0----2-----------0--|--0--------------------|-------2---------------|
----------3-----------|-----------------------|-----------------------|
----------------------|-----------------------|-----------------------|
----------------------|-----------------------|-----------------------|


  Q    E  H        E     Q    E  E   E  E  E  E     Q    E  E  Q.     E   
--3----5--5--------L--|----------5------5--3--1--|-------5--5--L------5--|
--5----6--6--------L--|-------------11-----------|--0----6--6--L---------|
----------------------|--------------------------|--7--------------------|
----------------------|--------------------------|-----------------------|
----------------------|--------------------------|-----------------------|
----------------------|--------------------------|-----------------------|


  Q    E  E  Q    Q       H        E  E  Q       H.           E  E   
--3----1--3--L----1----|--8--------L--5--3----|--1------------------|
--5-------5--L----1----|--1--------L----------|---------------------|
-------2---------------|----------------------|---------------2--2--|
-----------------------|----------------------|---------------------|
-----------------------|----------------------|---------------------|
-----------------------|----------------------|---------------------|


  Q    E  H        E     H.           E   E      Q    Q    Q    E  E   
-------5--------------|---------------5---5--|---3----5----3----5--3--|
--3-------3--------3--|--L------------6------|--11----6----5----6--5--|
----------------------|------------------10--|------------------------|
----------------------|----------------------|------------------------|
----------------------|----------------------|------------------------|
----------------------|----------------------|------------------------|


  W                   H        E  E  Q       E  E  E  Q    E  Q     
--L----------------|-----------5--3--1----|------------------------|
--L----------------|----------------------|-----------1------------|
-------------------|----------------------|------------------------|
-------------------|----------------------|--3-----3-------3-------|
-------------------|----------------------|-----3-------------3----|
-------------------|----------------------|------------------------|


  E  E  E  Q    E  Q       Q    E  E  E  E  E  E     Q     E  E  Q.     E   
------------------------|----------5--6--5--3--1--|--------5--5--L------5--|
-----------1------------|-------------------3--3--|-----------6--L---------|
------------------------|--0----------------------|--7----10---------------|
--3-----3-------3-------|-------------------------|--8---------------------|
-----3-------------3----|--1----------------------|------------------------|
------------------------|-------------------------|------------------------|


  Q    E  E  Q    Q       Q    E  H        E     Q    E  H        E   
--3----1--3--L----1----|--3----5--1--------1--|--1----5--1-----------|
--5----1--5--L----1----|--5----6--1--------1--|-------------------1--|
-----------------------|----------------------|-------2-----------0--|
-----------------------|----------------------|--3-------3-----------|
-----------------------|----------------------|----------------------|
-----------------------|----------------------|----------------------|


  Q    E  E  Q.     E     Q    E  E  Q    Q       Q    E  H        E   
-------5--5--L------5--|--3----1--3--L----1----|--3----5--5--------L--|
--3----6--6--L---------|--5----1--5--L----1----|--5----6--6--------L--|
--3--------------------|-----------------------|----------------------|
-----------------------|-----------------------|----------------------|
-----------------------|-----------------------|----------------------|
-----------------------|-----------------------|----------------------|


  Q    E  E   E  E  E  E     Q    E  E  Q.     E     Q    E  E  Q    Q     
----------5------5--3--1--|-------5--5--L------5--|--3----1--3--L----1----|
-------------11-----------|--0----6--6--L---------|--5-------5--L----1----|
--------------------------|--7--------------------|-------2---------------|
--------------------------|-----------------------|-----------------------|
--------------------------|-----------------------|-----------------------|
--------------------------|-----------------------|-----------------------|


  H        E  E  Q       H.           E  E     Q    E  H        E   
--8--------L--5--3----|--1------------------|-------5--------------|
--1--------L----------|---------------------|--3-------3--------3--|
----------------------|---------------2--2--|----------------------|
----------------------|---------------------|----------------------|
----------------------|---------------------|----------------------|
----------------------|---------------------|----------------------|


  H.           E   E      Q    Q    Q    E  E     W                 
---------------5---5--|---3----5----3----5--3--|--L----------------|
--L------------6------|--11----6----5----6--5--|--L----------------|
------------------10--|------------------------|-------------------|
----------------------|------------------------|-------------------|
----------------------|------------------------|-------------------|
----------------------|------------------------|-------------------|


  H        E  E  Q       E  E  E  Q    E  Q       E  E  E  Q    E  Q     
-----------5--3--1----|------------------------|------------------------|
----------------------|-----------1------------|-----------1------------|
----------------------|------------------------|------------------------|
----------------------|--3-----3-------3-------|--3-----3-------3-------|
----------------------|-----3-------------3----|-----3-------------3----|
----------------------|------------------------|------------------------|


  E  E  E  Q    E  Q       Q    Q    Q    Q       E  E  E  Q    E  Q     
------------------------|----------------------|------------------------|
-----------1------------|----------------------|-----------1------------|
------------------------|--2----0--------------|------------------------|
--3-----3-------3-------|------------3----2----|--3-----3-------3-------|
-----3-------------3----|----------------------|-----3-------------3----|
------------------------|----------------------|------------------------|


  E  E  E  Q    E  Q       E  E  E  Q    E  Q       W                 
------------------------|------------------------|-------------------|
-----------1------------|-----------1------------|-------------------|
------------------------|------------------------|--0----------------|
--3-----3-------3-------|--3-----3-------3-------|-------------------|
-----3-------------3----|-----3-------------3----|--1----------------|
------------------------|------------------------|-------------------|


  W                   Q    Q    Q    Q       W                  
-------------------|----------------------|-------------------||
--1----------------|----------------------|-------------------||
-------------------|-------0----2---------|-------------------||
--3----------------|-----------------3----|--L----------------||
-------------------|--3-------------------|-------------------||
-------------------|----------------------|-------------------||




Duration Legend
---------------
W - whole
H - half
Q - quarter
E - 8th
S - 16th
T - 32nd
X - 64th
. - note dotted
|-n-|  - n-tuplets


Tablature Legend
----------------
L - tied note
x - dead note
g - grace note
(n) - ghost note
> - accentuded note
NH - natural harmonic
AH - artificial harmonic
TH - tapped harmonic
SH - semi harmonic
PH - pitch harmonic
h - hammer on
p - pull off
b - bend
br - bendRelease
pb - preBend
pbr - preBendRelease
brb - bendReleaseBend
\n/ - tremolo bar dip
\n - tremolo bar dive
-/n - tremolo bar Release up
/n\ - tremolo bar inverted dip
/n - tremolo bar return
-\n - tremolo bar Release down
S - shift slide
s - legato slide
/ -  slide into from below or out of upwards
\ -  slide into from above or out of downwards
~ - vibrato
W - wide vibrato
tr - trill
TP - tremolo picking
T - tapping
S - slap
P - pop
< - fade in
^ - brush up
v - brush down
comments
We did not receive enough feedback on this tab! Please rate:
print report bad tab
1 2 3 4 5
I want to post or [tab]
guest
You may want to rate the tab now too:
select rating
Please do not post tabs as comments. Select "correction" instead!