Oops, an error
Loading. Please wait.

Crewcabanger Tab

ver2
ver2

Whole song

Interactive

More versions @911Tabs.com
2,605 views 12 this week
no commentswrite comment
1 2 3 4 5
please rate
Autoscroll
+/-
esc
set tempo
stop
Contributor
Difficulty
Tuning
intermediate
A E A D F# B
Hey! There's an official Ultimate Guitar app which is ideal
for learning songs when you're away from computer. Get the app
WARNING: You are trying to view
                                    content from Ultimate-Guitar.com
                                    in an unauthorized application,
                                    which is prohibited.

                                    Please use an official Ultimate
                                    Guitar Tabs application for iPhone,
                                    iPad or Android to access legitimate
                                    chords, guitar, bass, and drum tabs
                                    from Ultimate-Guitar.com database.

                                    Type "ultimate guitar tabs" in Apple
                                    App Store's or Android Market's
                                    search to find the application.
-------------------------------------------------------------------------------
                             Crewcabanger - Chelsea Grin
-------------------------------------------------------------------------------
Tabbed by: Ben Groeneveld (BenGrv1995)
Email: BenGrv1995@gmail.com

Tuning: 7 String Drop A (AEADGBe)


Guitar 1 (Left) & Guitar 2 (Right)
e|-------------------|-----------------|-----------------|-------------------|
B|-------------------|-----------------|-----------------|-------------------|
G|-------------------|-----------------|-----------------|-------------------|
D|-------------------|-----------------|-----------------|-------------------|
A|---0-2-1-4-3-0-2-3-|-0-2-1-4-3-0-2-1-|-0-2-1-4-3-0-2-3-|-0-2-1-4-3-0-2-1---|
E|---0-2-1-4-3-0-2-3-|-0-2-1-4-3-0-2-1-|-0-2-1-4-3-0-2-3-|-0-2-1-4-3-0-2-1---|
A|---0-2-1-4-3-0-2-3-|-0-2-1-4-3-0-2-1-|-0-2-1-4-3-0-2-3-|-0-2-1-4-3-0-2-1---|
     * * * * * * * *   * * * * * * * *   * * * * * * * *   * * * * * * * *


Guitar 1 (Left)
e|-------------------|-----------------|-----------------|-------------------|
B|-------------------|-----------------|-----------------|-------------------|
G|-------------------|-----------------|-----------------|-------------------|
D|-------------------|-----------------|-----------------|-------------------|
A|-------------------|-----------------|-----------------|-------------------|
E|-------------------|-----------------|-----------------|-------------------|
A|---0-2-1-4-3-0-2-3-|-0-2-1-4-3-0-2-1-|-0-2-1-4-3-0-2-3-|-0-2-1-4-3-0-2-1---|


Guitar 2 (Right)
e|-------------------|-----------------|-----------------|-------------------|
B|-------------------|-----------------|-----------------|-------------------|
G|-------------------|-----------------|-----------------|-------------------|
D|-------------------|-----------------|-----------------|-------------------|
A|---0-2-1-4-3-0-2-3-|-0-2-1-4-3-0-2-1-|-0-2-1-4-3-0-2-3-|-0-2-1-4-3-0-2-1---|
E|---0-2-1-4-3-0-2-3-|-0-2-1-4-3-0-2-1-|-0-2-1-4-3-0-2-3-|-0-2-1-4-3-0-2-1---|
A|---0-2-1-4-3-0-2-3-|-0-2-1-4-3-0-2-1-|-0-2-1-4-3-0-2-3-|-0-2-1-4-3-0-2-1---|
     * * * * * * * *   * * * * * * * *   * * * * * * * *   * * * * * * * *


Guitar 1 (Left) & Guitar 2 (Right)
e|---------------------|
B|---------------------|
G|---------------------|
D|---------------------|
A|---0-----------------|
E|---0-----------------|
A|---0-----------------|
     *

Guitar 1 (Left) & Guitar 2 (Right)
e|---------------|--------------|--------------|----------------|
B|---------------|--------------|--------------|----------------|
G|---------------|--------------|--------------|----------------|
D|---------------|--------------|--------------|----------------|
A|---0--2--1--4--|--3--0--2--3--|--0--2--1--4--|--3--0--2--1----|
E|---0--2--1--4--|--3--0--2--3--|--0--2--1--4--|--3--0--2--1----|
A|---0--2--1--4--|--3--0--2--3--|--0--2--1--4--|--3--0--2--1----|
     *  *  *  *     *  *  *  *     *  *  *  *     *  *  *  *  

e|---------------|--------------|--------------|----------------|
B|---------------|--------------|--------------|----------------|
G|---------------|--------------|--------------|----------------|
D|---------------|--------------|--------------|----------------|
A|---0--2--1--4--|--3--0--2--3--|--0--2--1--4--|--3--0--2--1----|
E|---0--2--1--4--|--3--0--2--3--|--0--2--1--4--|--3--0--2--1----|
A|---0--2--1--4--|--3--0--2--3--|--0--2--1--4--|--3--0--2--1----|
     *  *  *  *     *  *  *  *     *  *  *  *     *  *  *  *  


Guitar 1 (Left)
e|---------------|--------------|--------------|----------------|
B|---------------|--------------|--------------|----------------|
G|---------------|--------------|--------------|----------------|
D|---------------|--------------|--------------|----------------|
A|---------------|--------------|--------------|----------------|
E|---------5"----|--------5"----|--------4"----|--------4"------|
A|---5"-8"----8"-|--5"-8"----8"-|--4"-7"----7"-|--4"-7"----7"---|


Guitar 2 (Right)
e|---------------|--------------|--------------|----------------|
B|---------------|--------------|--------------|----------------|
G|---------------|--------------|--------------|----------------|
D|---------------|--------------|--------------|----------------|
A|---------------|--------------|--------------|----------------|
E|---5-----5-5-5-|--5-5-5-5-5-5-|--4-----4-4-4-|--4-4-4-4-4-4---|
A|---6-----6-6-6-|--6-6-6-6-6-6-|--5-----5-5-5-|--5-5-5-5-5-5---|
     *      * * *    * * * * * *    *     * * *    * * * * * *  
 

Guitar 1 (Left)
e|---------------|--------------|--------------|----------------|
B|---------------|--------------|--------------|----------------|
G|---------------|--------------|--------------|----------------|
D|---------------|--------------|--------------|----------------|
A|---------------|--------------|--------------|----------------|
E|---------1"----|--------1"----|--------0"----|--------0"------|
A|---1"-4"----4"-|--1"-4"----4"-|--0"-3"----3"-|--0"-3"----3"---|



Guitar 2 (Right)
e|---------------|--------------|--------------|----------------|
B|---------------|--------------|--------------|----------------|
G|---------------|--------------|--------------|----------------|
D|---------------|--------------|--------------|----------------|
A|---------------|--------------|--------------|----------------|
E|---1-----1-1-1-|--1-1-1-1-1-1-|--0-----0-0-0-|--0-0-0-0-0-0---|
A|---2-----2-2-2-|--2-2-2-2-2-2-|--1-----1-1-1-|--1-1-1-1-1-1---|
     *     * * *    * * * * * *    *     * * *    * * * * * *  


Guitar 1 (Left)
e|---------------|--------------|--------------|----------------|
B|---------------|--------------|--------------|----------------|
G|---------------|--------------|--------------|----------------|
D|---------------|--------------|--------------|----------------|
A|---------------|--------------|--------------|----------------|
E|---------5"----|--------5"----|--------4"----|--------4"------|
A|---5"-8"----8"-|--5"-8"----8"-|--4"-7"----7"-|--4"-7"----7"---|


Guitar 2 (Right)
e|---------------|--------------|--------------|----------------|
B|---------------|--------------|--------------|----------------|
G|---------------|--------------|--------------|----------------|
D|---------------|--------------|--------------|----------------|
A|---------------|--------------|--------------|----------------|
E|---5-----5-5-5-|--5-5-5-5-5-5-|--4-----4-4-4-|--4-4-4-4-4-4---|
A|---6-----6-6-6-|--6-6-6-6-6-6-|--5-----5-5-5-|--5-5-5-5-5-5---|
     *      * * *    * * * * * *    *     * * *    * * * * * *  


Guitar 1 (Left)
e|---------------|--------------|--------------|----------------|
B|---------------|--------------|--------------|----------------|
G|---------------|--------------|--------------|----------------|
D|---------------|--------------|--------------|----------------|
A|---------------|--------------|--------------|----------------|
E|---------1"----|--------1"----|--------0"----|--0-0----0-0----|
A|---1"-4"----4"-|--1"-4"----4"-|--0"-3"----3"-|--0-0----0-0----|
                                                  * *    * * 


Guitar 2 (Right)
e|---------------|--------------|--------------|----------------|
B|---------------|--------------|--------------|----------------|
G|---------------|--------------|--------------|----------------|
D|---------------|--------------|--------------|----------------|
A|---------------|--------------|--------------|----------------|
E|---1-----1-1-1-|--1-1-1-1-1-1-|--0-----0-0-0-|--0-0----0-0----|
A|---2-----2-2-2-|--2-2-2-2-2-2-|--1-----1-1-1-|--0-0----0-0----|
     *     * * *    * * * * * *    *     * * *    * *    * * 


Guitar 1 (Left)
e|---------------|--------------|--------------|----------------|
B|---------------|--------------|--------------|----------------|
G|---------------|--------------|--------------|----------------|
D|---------------|--------------|--------------|----------------|
A|---------------|--------------|--------------|----------------|
E|---------5-----|--------5-----|--------4-----|--------1-------|
A|---5--8-----8--|--5--8-----8--|--4--7-----7--|--1--4-----4----|


Guitar 2 (Right)
e|---------------|--------------|--------------|----------------|
B|---------------|--------------|--------------|----------------|
G|---------------|--------------|--------------|----------------|
D|---------------|--------------|--------------|----------------|
A|---5-----------|-(5)----------|--4-----------|--1-------------|
E|---5-----------|-(5)----------|--4-----------|--1-------------|
A|---5-----------|-(5)----------|--4-----------|--1-------------|



Guitar 1 (Left)
e|---------------|--------------|--------------|----------------|
B|---------------|--------------|--------------|----------------|
G|---------------|--------------|--------------|----------------|
D|---------------|--------------|--------------|----------------|
A|---------------|--------------|--------------|----------------|
E|---------0-----|--------0-----|--------0-----|--0-0----0-0----|
A|---0--3-----3--|--0--3-----3--|--0--3-----3--|--0-0----0-0----|
                                                  * *    * * 


Guitar 2 (Right)
e|---------------|--------------|--------------|----------------|
B|---------------|--------------|--------------|----------------|
G|---------------|--------------|--------------|----------------|
D|---------------|--------------|--------------|----------------|
A|---0-----------|-(0)----------|--0-----------|----------------|
E|---0-----------|-(0)----------|--0-----------|--0-0----0-0----|
A|---0-----------|-(0)----------|--0-----------|--0-0----0-0----|
                                                  * *    * * 


Guitar 1 (Left)
e|---------------|--------------|--------------|----------------|
B|---------------|--------------|--------------|----------------|
G|---------------|--------------|--------------|----------------|
D|---------------|--------------|--------------|----------------|
A|---------------|--------------|--------------|----------------|
E|---------5-----|--------5-----|--------4-----|--------1-------|
A|---5--8-----8--|--5--8-----8--|--4--7-----7--|--1--4-----4----|


Guitar 2 (Right)
e|---------------|--------------|--------------|----------------|
B|---------------|--------------|--------------|----------------|
G|---------------|--------------|--------------|----------------|
D|---------------|--------------|--------------|----------------|
A|---5-----------|-(5)----------|--4-----------|--1-------------|
E|---5-----------|-(5)----------|--4-----------|--1-------------|
A|---5-----------|-(5)----------|--4-----------|--1-------------|



Guitar 1 (Left)
e|---------------|--------------|--------------|----------------|
B|---------------|--------------|--------------|----------------|
G|---------------|--------------|--------------|----------------|
D|---------------|--------------|--------------|----------------|
A|---------------|--------------|--------------|----------------|
E|---------0-----|--------0-----|--------0-----|--0-0----0-0----|
A|---0--3-----3--|--0--3-----3--|--0--3-----3--|--0-0----0-0----|
                                                  * *    * * 


Guitar 2 (Right)
e|---------------|--------------|--------------|----------------|
B|---------------|--------------|--------------|----------------|
G|---------------|--------------|--------------|----------------|
D|---------------|--------------|--------------|----------------|
A|---0-----------|-(0)----------|--0-----------|----------------|
E|---0-----------|-(0)----------|--0-----------|--0-0----0-0----|
A|---0-----------|-(0)----------|--0-----------|--0-0----0-0----|
                                                  * *    * * 


Guitar 1 (Left)
e|-----------------|
B|-----------------|
G|-----------------|
D|-----------------|
A|---3-3-3---------|
E|---3-3-3---------|
A|---3-3-3---------|
     * * *


Guitar 2 (Right)
e|-----------------|
B|-----------------|
G|-----------------|
D|-----------------|
A|---------2-2-2---|
E|---------2-2-2---|
A|---------2-2-2---|
           * * *


Guitar 1 (Left) & Guitar 2 (Right)
e|--------------------------|
B|--------------------------|
G|--------------------------|
D|--------------------------|
A|--------------------------|
E|--0-0-0-0----0-0----000---|
A|--0-0-0-0----0-0----000---|
    * * * *    * *    ***

e|-----------------------------|
B|-----------------------------|
G|-----------------------------|
D|-----------------------------|
A|-----------------------------|
E|--0-0-0-0----0-0--000--000---|
A|--0-0-0-0----0-0--000--000---|
    * * * *    * *  ***  ***

Guitar 1 (Left) & Guitar 2 (Right)
e|-----------------|
B|-----------------|
G|-----------------|
D|-----------------|
A|-----------------|
E|-----------------|
A|-------/8\-------|


Guitar 1 (Left) & Guitar 2 (Right)
e|--------------------------|
B|--------------------------|
G|--------------------------|
D|--------------------------|
A|--------------------------|
E|--0-0-0-0----0-0----000---|
A|--0-0-0-0----0-0----000---|
    * * * *    * *    ***

e|-----------------------------|
B|-----------------------------|
G|-----------------------------|
D|-----------------------------|
A|-----------------------------|
E|--0-0-0-0----0-0--000--000---|
A|--0-0-0-0----0-0--000--000---|
    * * * *    * *  ***  ***


e|---------------|--------------|--------------|----------------|
B|---------------|--------------|--------------|----------------|
G|---------------|--------------|--------------|----------------|
D|---------------|--------------|--------------|----------------|
A|---------------|--------------|--------------|----------------|
E|---------5"----|--------5"----|--------4"----|--------4"------|
A|---5"-8"----8"-|--5"-8"----8"-|--4"-7"----7"-|--4"-7"----7"---|

e|---------------|--------------|--------------|----------------|
B|---------------|--------------|--------------|----------------|
G|---------------|--------------|--------------|----------------|
D|---------------|--------------|--------------|----------------|
A|---------------|--------------|--------------|----------------|
E|---------1"----|--------1"----|--------0"----|--------0"------|
A|---1"-4"----4"-|--1"-4"----4"-|--0"-3"----3"-|--0"-3"----3"---|


e|---------------|--------------|--------------|----------------|
B|---------------|--------------|--------------|----------------|
G|---------------|--------------|--------------|----------------|
D|---------------|--------------|--------------|----------------|
A|---------------|--------------|--------------|----------------|
E|---------5"----|--------5"----|--------4"----|--------4"------|
A|---5"-8"----8"-|--5"-8"----8"-|--4"-7"----7"-|--4"-7"----7"---|

e|---------------|--------------|--------------|----------------|
B|---------------|--------------|--------------|----------------|
G|---------------|--------------|--------------|----------------|
D|---------------|--------------|--------------|----------------|
A|---------------|--------------|--------------|----------------|
E|---------1"----|--------1"----|--------0"----|--0-0----0-0----|
A|---1"-4"----4"-|--1"-4"----4"-|--0"-3"----3"-|--0-0----0-0----|
                                                  * *    * * 

Guitar 1 (Left) & Guitar 2 (Right)
e|-------------------|-------------------|
B|-------------------|-------------------|
G|-------------------|-------------------|
D|-------------------|-------------------|
A|---5--5--5-5--5--5-|-5--5--5-5---------|
E|---4--4--4-4--4--4-|-4--4--4-4-[5]-----|
A|---5--5--5-5--5--5-|-5--5--5-5---------|
     *  *  * *  *  *   *  *  * *


e|-------------------|-------------------|
B|-------------------|-------------------|
G|-------------------|-------------------|
D|-------------------|-------------------|
A|---5--5--5-5--5--5-|-5--5--5-----------|
E|---4--4--4-4--4--4-|-4--4--4-7"4"6"3"--|
A|---5--5--5-5--5--5-|-5--5--5-----------|
     *  *  * *  *  *   *  *  * * * * *


e|-------------------|-------------------|
B|-------------------|-------------------|
G|-------------------|-------------------|
D|-------------------|-------------------|
A|---5--5--5-5--5--5-|-5--5--5-5---------|
E|---4--4--4-4--4--4-|-4--4--4-4---------|
A|---5--5--5-5--5--5-|-5--5--5-5-[5]-----|
     *  *  * *  *  *   *  *  * *


e|-------------------|--------------------|
B|-------------------|--------------------|
G|-------------------|--------------------|
D|-------------------|--------------------|
A|---5--5--5-5--5--5-|-5--5--5------------|
E|---4--4--4-4--4--4-|-4--4--4-10"4"6"3"--|
A|---5--5--5-5--5--5-|-5--5--5------------|
     *  *  * *  *  *   *  *  * *  * * *


e|-------------------|-------------------|
B|-------------------|-------------------|
G|-------------------|-------------------|
D|-------------------|-------------------|
A|---5--5--5-5--5--5-|-5--5--5-5---------|
E|---4--4--4-4--4--4-|-4--4--4-4-[5]-----|
A|---5--5--5-5--5--5-|-5--5--5-5---------|
     *  *  * *  *  *   *  *  * *


e|-------------------|-------------------|
B|-------------------|-------------------|
G|-------------------|-------------------|
D|-------------------|-------------------|
A|---5--5--5-5--5--5-|-5--5--5-----------|
E|---4--4--4-4--4--4-|-4--4--4-7"4"6"3"--|
A|---5--5--5-5--5--5-|-5--5--5-----------|
     *  *  * *  *  *   *  *  * * * * *


e|-------------------|-------------------|
B|-------------------|-------------------|
G|-------------------|-------------------|
D|-------------------|-------------------|
A|---5--5--5-5--5--5-|-5--5--5-5---------|
E|---4--4--4-4--4--4-|-4--4--4-4---------|
A|---5--5--5-5--5--5-|-5--5--5-5-[5]-----|
     *  *  * *  *  *   *  *  * *


e|-------------------|--------------------|
B|-------------------|--------------------|
G|-------------------|--------------------|
D|-------------------|--------------------|
A|---5--5--5-5--5--5-|-5--5--5------------|
E|---4--4--4-4--4--4-|-4--4--4-10"4"6"3"--|
A|---5--5--5-5--5--5-|-5--5--5------------|
     *  *  * *  *  *   *  *  * *  * * *



Guitar 1 (Left)
e|------------------13h17/18\17-13-------|----------------13h17/18\17-13----------|
B|---------------15----------------15----|-------------15----------------15-------|
G|------------14----------------------14-|----------14----------------------14----|
D|---------15----------------------------|-------15-------------------------------|
A|---12h17-------------------------------|-12h17----------------------------------|
E|---------------------------------------|----------------------------------------|
A|---------------------------------------|----------------------------------------|


Guitar 2 (Right)
e|---------------------------------------|---------------------------------------|
B|---------------------------------------|---------------------------------------|
G|---------------------------------------|---------------------------------------|
D|---------------------------------------|---------------------------------------|
A|---5-----------------------------------|---8---------------7-------------------|
E|---5-----------------------------------|---8---------------7-------------------|
A|---5-----------------------------------|---8---------------7-------------------|


Guitar 1 (Left)
e|------------------12h16/17\16-12-------|-16s17/16-12-------16/17\16-12---------|
B|---------------14----------------14----|-------------14----------------14------|
G|------------13----------------------13-|----------------13----------------13---|
D|---------14----------------------------|---------------------------------------|
A|---12h16-------------------------------|---------------------------------------|
E|---------------------------------------|---------------------------------------|
A|---------------------------------------|---------------------------------------|


Guitar 2 (Right)
e|---------------------------------------|---------------------------------------|
B|---------------------------------------|---------------------------------------|
G|---------------------------------------|---------------------------------------|
D|---------------------------------------|---------------------------------------|
A|---4-----------------------------------|---1---------------0-------------------|
E|---4-----------------------------------|---1---------------0-------------------|
A|---4-----------------------------------|---1---------------0-------------------|



Guitar 1 (Left)
e|------------------13h17/18\17-13-------|----------------13h17/18\17-13----------|
B|---------------15----------------15----|-------------15----------------15-------|
G|------------14----------------------14-|----------14----------------------14----|
D|---------15----------------------------|-------15-------------------------------|
A|---12h17-------------------------------|-12h17----------------------------------|
E|---------------------------------------|----------------------------------------|
A|---------------------------------------|----------------------------------------|


Guitar 2 (Right)
e|------------------10h13/15\13-10-------|----------------10h13/15\13-10----------|
B|---------------11----------------11----|-------------11----------------11-------|
G|------------10----------------------10-|----------10----------------------10----|
D|---------12----------------------------|-------12-------------------------------|
A|---10h13-------------------------------|-10h13----------------------------------|
E|---------------------------------------|----------------------------------------|
A|---------------------------------------|----------------------------------------|


Guitar 3
e|---------------------------------------|---------------------------------------|
B|---------------------------------------|---------------------------------------|
G|---------------------------------------|---------------------------------------|
D|---------------------------------------|---------------------------------------|
A|---5-----5-----5-----5-----5-----5-----|---8-----8-----8-----7-----7-----7-----|
E|---5-----5-----5-----5-----5-----5-----|---8-----8-----8-----7-----7-----7-----|
A|---5-----5-----5-----5-----5-----5-----|---8-----8-----8-----7-----7-----7-----|
     *     *     *     *     *     *         *     *     *     *     *     *


Guitar 1 (Left)
e|------------------12h16/17\16-12-------|-16/17\16-12-------16/17\16-12---------|
B|---------------14----------------14----|-------------14----------------14------|
G|------------13----------------------13-|----------------13----------------13---|
D|---------14----------------------------|---------------------------------------|
A|---12h16-------------------------------|---------------------------------------|
E|---------------------------------------|---------------------------------------|
A|---------------------------------------|---------------------------------------|


Guitar 2 (Right)
e|-------------------9h12/13\12--9-------|-12/13\12--9-------12/13\12--9---------|
B|---------------10----------------10----|-------------10----------------10------|
G|-------------9-----------------------9-|-----------------9-----------------9---|
D|---------11----------------------------|---------------------------------------|
A|----9h12-------------------------------|---------------------------------------|
E|---------------------------------------|---------------------------------------|
A|---------------------------------------|---------------------------------------|


Guitar 3
e|---------------------------------------|---------------------------------------|
B|---------------------------------------|---------------------------------------|
G|---------------------------------------|---------------------------------------|
D|---------------------------------------|---------------------------------------|
A|---4-----4-----4-----4-----4-----4-----|---1-----1-----1-----0-----0-----0-----|
E|---4-----4-----4-----4-----4-----4-----|---1-----1-----1-----0-----0-----0-----|
A|---4-----4-----4-----4-----4-----4-----|---1-----1-----1-----0-----0-----0-----|
     *     *     *     *     *     *         *     *     *     *     *     *


************************************

| /   slide up
| \   slide down
| h   hammer-on
| p   pull-off
| ~   vibrato
| +   harmonic
| x   Mute note
| b   Bend
| pb  Pre-bend
| br  Bend release
| pbr Pre-bend release
| brb Bend release bend
| [x] pinch harmonic
| "   tremolo pick
| *   Palm-mute
comments
We did not receive enough feedback on this tab! Please rate:
print report bad tab
1 2 3 4 5
I want to post or [tab]
guest
You may want to rate the tab now too:
select rating
Please do not post tabs as comments. Select "correction" instead!