Oops, an error
Loading. Please wait.

Everlasting Sleep Tab

ver1
ver1

Whole song

Interactive

More versions @911Tabs.com
1,141 views 9 this week
no commentswrite comment
1 2 3 4 5
excellent!
x 1
Autoscroll
+/-
esc
set tempo
stop
Difficulty
Tuning
intermediate
A E A D F# B
Hey! There's an official Ultimate Guitar app which is ideal
for learning songs when you're away from computer. Get the app
WARNING: You are trying to view
                                    content from Ultimate-Guitar.com
                                    in an unauthorized application,
                                    which is prohibited.

                                    Please use an official Ultimate
                                    Guitar Tabs application for iPhone,
                                    iPad or Android to access legitimate
                                    chords, guitar, bass, and drum tabs
                                    from Ultimate-Guitar.com database.

                                    Type "ultimate guitar tabs" in Apple
                                    App Store's or Android Market's
                                    search to find the application.
Everlasting Sleep
My Damnation
Track 2
Tabbed by Calvin Johnson
if you cannot see the tabs properly, copy/paste into a document, change to 
"courier new" font, size 10

“I will bleed out under moonlight red”
E---------------------------------------------------------------------|
B---------------------------------------------------------------------|
F#--------------------------------------------------------------------|
D---------------------------------------------------------------------|
A-1-------------1------------1----------------------------------------|
E-0--2-1-0-4(8)-0-2-1-0-5(8)-0-2-1-0----------------------------------|
A----2-1-0--------2-1-0--------2-1-0----------------------------------|
     * * *      * * * *      * * * *
“To pay for what I’ve done”
E---------------------------------------------------------------------|
B---------------------------------------------------------------------|
F#--------------------------------------------------------------------|
D---------------------------------------------------------------------|
A-1-------------1------------1----------------------------------------|
E-0--2-1-0-4(8)-0-2-1-0-5(8)-0-2-1-0----------------------------------|
A----2-1-0--------2-1-0--------2-1-0----------------------------------|
     * * *      * * * *      * * * *
“I lay to rest under the stars”
E---------------------------------------------------------------------|
B---------------------------------------------------------------------|
F#--------------------------------------------------------------------|
D---------------------------------------------------------------------|
A-1-------------1------------1----------------------------------------|
E-0--2-1-0-4(8)-0-2-1-0-5(8)-0-2-1-0----------------------------------|
A----2-1-0--------2-1-0--------2-1-0----------------------------------|
     * * *      * * * *      * * * *

“Below me waits a loathing nemesis”
E---------------------------------------------------------------------|
B---------------------------------------------------------------------|
F#--------------------------------------------------------------------|
D---------------------------------------------------------------------|
A-1-------------1------------1----------------------------------------|
E-0--2-1-0-4(8)-0-2-1-0-5(8)-0-2-1-0----------------------------------|
A----2-1-0--------2-1-0--------2-1-0----------------------------------|
     * * *      * * * *      * * * *
“Slowly building fear inside”
E----------------------------|----------------------------------------|
B---------------------------O|----------------------------------------|
F#---------------------------|----------------------------------------|
D----------------------------|----------------------------------------|
A----------------------------|----------------------------------------|
E-1-1-1--1--1-1-1--1--1-1-1-O|----------------------------------------|
A-2-2-2--2--2-2-2--2--2-2-2--|----------------------------------------|
  * * *  *  * * *  *  * * *
“I seek Everlasting sleep”
E----------------------------|----------------------------------------|
B---------------------------O|----------------------------------------|
F#---------------------------|----------------------------------------|
D----------------------------|----------------------------------------|
A----------------------------|----------------------------------------|
E-1-1-1--1--1-1-1--1--1-1-1-O|<5>-------------------------------------|
A-2-2-2--2--2-2-2--2--2-2-2--|----------------------------------------|
  * * *  *  * * *  *  * * *

“Everlasting sleep”
E---------------------------------------------------------------------|
B---------------------------------------------------------------------|
F#--------------------------------------------------------------------|
D---------------------------------------------------------------------|
A-1------------1------------1-------1------------1------------1-------|
E-0-2-1-0-4(8)-0-2-1-0-5(8)-0-2-1-0-0-2-1-0-4(8)-0-2-1-0-5(8)-0-2-1-0-|
A---2-1-0--------2-1-0--------2-1-0---2-1-0--------2-1-0--------2-1-0-|
  * * * *      * * * *      * * * * * * * *      * * * *      * * * *
E---------------------------------------------------------------------|
B---------------------------------------------------------------------|
F#--------------------------------------------------------------------|
D---------------------------------------------------------------------|
A--------1------------1-----1----------1------------------------------|
E-0--0-0-0-0-0-0--0-0-0-0-0-0-0-0--0-0-0-------------2--3-------------|
A-1--1-1---1-1-1--1-1---1-1---1-1--1-1---0~-1~-0~-1~-3--4-------------|
  *  * *   * * *  * *   * *   * *  * *               *  *
“I’m bleeding out”
E---------------------------------------------------------------------|
B---------------------------------------------------------------------|
F#--------------------------------------------------------------------|
D---------------------------------------------------------------------|
A--------1------------1-----1----------1------------------------------|
E-0--0-0-0-0-0-0--0-0-0-0-0-0-0-0--0-0-0-------------2--3-------------|
A-1--1-1---1-1-1--1-1---1-1---1-1--1-1---0~-1~-0~-1~-3--4-------------|
  *  * *   * * *  * *   * *   * *  * *               *  *


“Call to me beauty”
E---------------------------------------------------------------------|
B---------------------------------------------------------------------|
F#--------------------------------------------------------------------|
D---------------------------------------6s7s6~s12---------------------|
A-1~-----1~---1~---------1~-----1~---1~-x-x-x--x----------------------|
E-1~-1-2-1~-2-1~-4-4-4-4-1~-1-2-1~-2-1~-4s5s4~s10---------------------|
A-1~-1-2-1~-2-1~-5-5-5-5-1~-1-2-1~-2-1~-------------------------------|
     * *    *    * * * *    * *    *
“Make me misery”
E---------------------------------------------------------------------|
B---------------------------------------------------------------------|
F#--------------------------------------------------------------------|
D---------------------------------------6s7s6~s12---------------------|
A-1~-----1~---1~---------1~-----1~---1~-x-x-x--x----------------------|
E-1~-1-2-1~-2-1~-4-4-4-4-1~-1-2-1~-2-1~-4s5s4~s10---------------------|
A-1~-1-2-1~-2-1~-5-5-5-5-1~-1-2-1~-2-1~-------------------------------|
     * *    *    * * * *    * *    *
“When blood seeps through every pour” (LEADS)
E------------------------------------------------------------------------|
B------------------------------------------------------------------------|
F#---------16------------------------------------------------------------|
D----15-16----16-15-13~-13-13h16-16p15-15-15-----------------------------|
A-13---------------------------------------------------------------------|
E------------------------------------------------------------------------|
A------------------------------------------------------------------------|


E---------------------------------------------------------------------|
B---------------------------------------------------------------------|
F#---------16---------------------------------------------------------|
D----15-16----16-15h16p15p13~---15--16--15----------------------------|
A-13--------------------------14--14--14--14--------------------------|
E---------------------------------------------------------------------|
A---------------------------------------------------------------------|
(RHYTHM)
E---------------------------------------------------------------------|
B---------------------------------------------------------------------|
F#--------------------------------------------------------------------|
D---------------------------------------6s7s6~s12---------------------|
A-1~-----1~---1~---------1~-----1~---1~-x-x-x--x----------------------|
E-1~-1-2-1~-2-1~-4-4-4-4-1~-1-2-1~-2-1~-4s5s4~s10---------------------|
A-1~-1-2-1~-2-1~-5-5-5-5-1~-1-2-1~-2-1~-------------------------------|
     * *    *    * * * *    * *    *
(LEADS)
“I am yours forevermore”
E------------------------------------------------------------------------|
B------------------------------------------------------------------------|
F#---------16------------------------------------------------------------|
D----15-16----16-15-13~-13-13h16-16p15-15-15-----------------------------|
A-13---------------------------------------------------------------------|
E------------------------------------------------------------------------|
A------------------------------------------------------------------------|



E---------------------------------------------------------------------|
B---------------------------------------------------------------------|
F#---------16---------------------------------------------------------|
D----15-16----16-15h16p15p13~---15--16--15----------------------------|
A-13--------------------------14--14--14--14--------------------------|
E---------------------------------------------------------------------|
A---------------------------------------------------------------------|
(RHYTHYM)
E---------------------------------------------------------------------|
B---------------------------------------------------------------------|
F#--------------------------------------------------------------------|
D---------------------------------------6s7s6~s12---------------------|
A-1~-----1~---1~---------1~-----1~---1~-x-x-x--x----------------------|
E-1~-1-2-1~-2-1~-4-4-4-4-1~-1-2-1~-2-1~-4s5s4~s10---------------------|
A-1~-1-2-1~-2-1~-5-5-5-5-1~-1-2-1~-2-1~-------------------------------|
     * *    *    * * * *    * *    *
“Forevermore”
E---------------------------------------------------------------------|
B---------------------------------------------------------------------|
F#--------------------------------------------------------------------|
D---------------------------------------------------------------------|
A-1~-1-1-1-1-1~-1-1-1-1~-1---1-1-1---111------------------------------|
E-0~-0-0-0-0-0~-0-0-0-0~-0---0-0-0---000------------------------------|
A-1~-1-1-1-1-1~-1-1-1-1~-1---1-1-1---111------------------------------|
  *  * * * * *  * * * *  *   * * *   ***



“To be human no more”
E---------------------------------------------------------------------|
B---------------------------------------------------------------------|
F#--------------------------------------------------------------------|
D---------------------------------------------------------------------|
A-1~-1-1-1-1-1~-1-1-1-1~-1---1-1-1---111------------------------------|
E-0~-0-0-0-0-0~-0-0-0-0~-0---0-0-0---000------------------------------|
A-1~-1-1-1-1-1~-1-1-1-1~-1---1-1-1---111------------------------------|
  *  * * * * *  * * * *  *   * * *   ***
“I want you to see the scars”
E-1----1--------------1-------------------------------------------------|
B-2--2---2----------2---2-----------------------------------------------|
F#---------2------2-------2---------------------------------------------|
D------------3--3-----------3-------------------------------------------|
A-----------------------------------------------------------------------|
E-----------------------------1-0-0-1-0-0-1-0-1-0-0-1-0-0-1-0-<5>-------|
A-----------------------------2-1-0-2-1-0-2-1-2-1-0-2-1-0-2-1-----------|
                              * * * * * * * * * * * * * * * *
“You can’t give me peace, I seek everlasting sleep”
E-1----1--------------1-----------------------------------------------|
B-2--2---2----------2---2---------------------------------------------|
F#---------2------2-------2-------------------------------------------|
D------------3--3-----------3-----------------------------------------|
A---------------------------------------------------------------------|
E-----------------------------0-0-0--0--0-0-0-0--0-0-0----------------|
A-----------------------------1-1-1--1--1-1-1-1--1-1-1----------------|
                              * * *  *  * * * *  * * *

“I want you to see the scars”
E-1----1--------------1-----------------------------------------------|
B-2--2---2----------2---2---------------------------------------------|
F#---------2------2-------2-------------------------------------------|
D------------3--3-----------3-----------------------------------------|
A---------------------------------------------------------------------|
E------------------------------------------------------------<5>------|
A-----------------------------2-1-0-2-1-0-2-1-2-1-0-2-1-0-2-1---------|
                              * * * * * * * * * * * * * * * *
“You can’t give me peace, I seek everlasting sleep”
E-1----1--------------1-----------------------------------------------|
B-2--2---2----------2---2---------------------------------------------|
F#---------2------2-------2-------------------------------------------|
D------------3--3-----------3-----------------------------------------|
A---------------------------------------------------------------------|
E-----------------------------0-0-0--0--0-0-0-0--0-0-0-0--------------|
A-----------------------------1-1-1--1--1-1-1-1--1-1-1-1--------------|
                              * * *  *  * * * *  * * * *
“Sleep”
E---------------------------------------------------------------------------|
B---------------------------------------------------------------------------|
F#--------------------------------------------------------------------------|
D---------------------------------------------------------------------------|
A-------------------------------------------------------------------1---1---|
E-1-0-0-1-0-0-1-0-1-0-0-1-0-0-1-0<5>1-0-0-1-0-0-1-0-1-0-0-1-0-0-1-0-0-0-0-0-|
A-2-1-0-2-1-0-2-1-2-1-0-2-1-0-2-1---2-1-0-2-1-0-2-1-2-1-0-2-1-0-2-1---1---1-|
  * * * * * * * * * * * * * * * *   * * * * * * * * * * * * * * * *

E---------------------------------------------------------------------------|
B---------------------------------------------------------------------------|
F#--------------------------------------------------------------------------|
D---------------------------------------------------------------------------|
A-------------------------------------------------------------------1---1---|
E-1-0-0-1-0-0-1-0-1-0-0-1-0-0-1-0<5>1-0-0-1-0-0-1-0-1-0-0-1-0-0-1-0-0-0-0-0-|
A-2-1-0-2-1-0-2-1-2-1-0-2-1-0-2-1---2-1-0-2-1-0-2-1-2-1-0-2-1-0-2-1---1---1-|
  * * * * * * * * * * * * * * * *   * * * * * * * * * * * * * * * *
“When blood seeps through every pour”
E---------------------------------------------------------------------|
B---------------------------------------------------------------------|
F#--------------------------------------------------------------------|
D---------------------------------------6s7s6~s12---------------------|
A-1~-----1~---1~---------1~-----1~---1~-x-x-x--x----------------------|
E-1~-1-2-1~-2-1~-4-4-4-4-1~-1-2-1~-2-1~-4s5s4~s10---------------------|
A-1~-1-2-1~-2-1~-5-5-5-5-1~-1-2-1~-2-1~-------------------------------|
     * *    *    * * * *    * *    *
E---------------------------------------------------------------------|
B---------------------------------------------------------------------|
F#---------16---------------------------------------------------------|
D----15-16----16-15h16p15p13~-----------------------------------------|
A-13------------------------------------------------------------------|
E---------------------------------------------------------------------|
A---------------------------------------------------------------------|





(LEADS)
E------------------------------------------------------------------------|
B------------------------------------------------------------------------|
F#---------16------------------------------------------------------------|
D----15-16----16-15-13~-13-13h16-16p15-15-15-----------------------------|
A-13---------------------------------------------------------------------|
E------------------------------------------------------------------------|
A------------------------------------------------------------------------|

E---------------------------------------------------------------------|
B---------------------------------------------------------------------|
F#---------16---------------------------------------------------------|
D----15-16----16-15h16p15p13~---15--16--15----------------------------|
A-13--------------------------14--14--14--14--------------------------|
E---------------------------------------------------------------------|
A---------------------------------------------------------------------|
(RHYTHM) For the rhythm part, it is:
A-1
E-1
A-1
And some muted, find the pattern yourself.






“When blood seeps through every pour”
(LEADS)
E------------------------------------------------------------------------|
B------------------------------------------------------------------------|
F#---------16------------------------------------------------------------|
D----15-16----16-15-13~-13-13h16-16p15-15-15-----------------------------|
A-13---------------------------------------------------------------------|
E------------------------------------------------------------------------|
A------------------------------------------------------------------------|

E---------------------------------------------------------------------|
B---------------------------------------------------------------------|
F#---------16---------------------------------------------------------|
D----15-16----16-15h16p15p13~---15--16--15----------------------------|
A-13--------------------------14--14--14--14--------------------------|
E---------------------------------------------------------------------|
A---------------------------------------------------------------------|

(DUALS)
E---------------------------------------------------------------------|
B----------16---------------------------------------------------------|
F#---16-17----17-16-14~-14-14h17-17p16-16-16--------------------------|
D-13------------------------------------------------------------------|
A---------------------------------------------------------------------|
E---------------------------------------------------------------------|
A---------------------------------------------------------------------|


E---------------------------------------------------------------------|
B----------16---------------------------------------------------------|
F#---16-17----17-16~---16--17-----------------------------------------|
D-13-----------------14--14--14---------------------------------------|
A---------------------------------------------------------------------|
E---------------------------------------------------------------------|
A---------------------------------------------------------------------|
“I am yours forevermore”
(LEADS)
E------------------------------------------------------------------------|
B------------------------------------------------------------------------|
F#---------16------------------------------------------------------------|
D----15-16----16-15-13~-13-13h16-16p15-15-15-----------------------------|
A-13---------------------------------------------------------------------|
E------------------------------------------------------------------------|
A------------------------------------------------------------------------|

E---------------------------------------------------------------------|
B---------------------------------------------------------------------|
F#---------16---------------------------------------------------------|
D----15-16----16-15h16p15p13~---15--16--15----------------------------|
A-13--------------------------14--14--14--14--------------------------|
E---------------------------------------------------------------------|
A---------------------------------------------------------------------|




(DUALS)
E---------------------------------------------------------------------|
B----------16---------------------------------------------------------|
F#---16-17----17-16-14~-14-14h17-17p16-16-16--------------------------|
D-13------------------------------------------------------------------|
A---------------------------------------------------------------------|
E---------------------------------------------------------------------|
A---------------------------------------------------------------------|

E---------------------------------------------------------------------|
B----------16---------------------------------------------------------|
F#---16-17----17-16~---16--17-----------------------------------------|
D-13-----------------14--14--14---------------------------------------|
A---------------------------------------------------------------------|
E---------------------------------------------------------------------|
A---------------------------------------------------------------------|

Last note for lead guitar is 13 on the A (5) string, the last note for Duals is 13 on 
the D (4), the AEA 1 (5,6,7)
comments
We did not receive enough feedback on this tab! Please rate:
print report bad tab
1 2 3 4 5
I want to post or [tab]
guest
You may want to rate the tab now too:
select rating
Please do not post tabs as comments. Select "correction" instead!