Oops, an error
Loading. Please wait.

Lilith Tab

ver1
ver1

Intro

Whole song

Interactive

More versions @911Tabs.com
13,762 views 24 this week
2 commentsread comments
1 2 3 4 5
worth learning
x 6
add to favorites launch autoscroll
font size
0
reset
Autoscroll
+/-
esc
set tempo
stop
Contributor
Difficulty
Tuning
advanced
A E A D F# B
WARNING: You are trying to view
                                    content from Ultimate-Guitar.com
                                    in an unauthorized application,
                                    which is prohibited.

                                    Please use an official Ultimate
                                    Guitar Tabs application for iPhone,
                                    iPad or Android to access legitimate
                                    chords, guitar, bass, and drum tabs
                                    from Ultimate-Guitar.com database.

                                    Type "ultimate guitar tabs" in Apple
                                    App Store's or Android Market's
                                    search to find the application.
----------------------------------------------------------------------------
                                Lilith
                             Chelsea Grin
----------------------------------------------------------------------------

Wow. What a brutal song. First off, I was pleasantly surprised by the use of clean
vocals in this song. I have seen a lot of vulgarity toward that, but I don’t see the reason
for it. If they see the whole song as annoy with clean lyrics, then they miss out of the 
intense guitar riffs, fast-paced drum beats, beautiful bass lines, and heavy duty screams
that have unbelievable ranges. Even then, the clean lyrics are as intense as the rest. 
It just shows their true talents and varieties. Enjoy!

Username: dkm817 (same on X box live)
Youtube Cover: http://www.youtube.com/watch?v=6XF7N5f_mjQ
Email: guitardrums@rockfan.com

Guitar 1 Rhythmic (A  E  A  D  F# B  )
Guitar 2 Lead     (A  E  A  D  F# B  )

Tab Guide...
===================================================================
(end of measures)

===================================================================
===================================================================
(end of parts)

===================================================================
===================================================================
===================================================================
(end of song)
(If there is a “continued” it is because the numbers could not
fit on 1 line or connecting times played.)


Intro 1

Guitar 1 (x2)
B -----------------------------------------------------------------|
F#-15~~~~~~~~~-------------16~~~~~-15~~~~~~~~~-------------16~~~~~-|
D -------------15~-14~~~~~---------------------15~-----------------|
A -------------------------------------------------13~~~~~---------|
E -----------------------------------------------------------------|
A -----------------------------------------------------------------|

===================================================================
===================================================================

Intro 2

Guitar 1
B -----------------------------------------------------------------|
F#-----------------------------------------------------------------|
D -----------------------------------------------------------------|
A -----------------------------------------------------------------|
E -----------------------------------------------------------------|
A -0-0-0-0-13-13-13-13-12-12-12-12-0-0-0-0-10~~~~~-0~~~~~~-0-0-0-0-|

Guitar 2
B -----------------------------------------------------------------|
F#-----------------------------------------------------------------|
D -----------------------------------------------------------------|
A -----------------------------------------------------------------|
E -----------------------------------------6~~~~~~-----------------|
A -0-0-0-0-13-13-13-13-12-12-12-12-0-0-0-0---------0~~~~~~-0-0-0-0-|

===================================================================

Guitar 1
B -----------------------------------------------------------------|
F#-----------------------------------------------------------------|
D -----------------------------------------------------------------|
A -----------------------------------------------------------------|
E -------------------------------------------------3-3-3-3-6~~~~~~-|
A -8-8-8-8-7-7-7-7-7-7-7-7-5-5-5-5-5-5-5-5-5-5-5-5-----------------|

Guitar 2
B -----------------------------------------------------------------|
F#-----------------------------------------------------------------|
D -----------------------------------------------------------------|
A -----------------------------------------------------------------|
E -------------------------------------------------6-6-6-6-10~~~~~-|
A -8-8-8-8-7-7-7-7-7-7-7-7-5-5-5-5-5-5-5-5-5-5-5-5-----------------|

===================================================================

Guitar 1
B -----------------------------------------------------------------|
F#-----------------------------------------------------------------|
D -----------------------------------------------------------------|
A -----------------------------------------------------------------|
E -----------------------------------------------------------------|
A -0-0-0-0-4-4-4-4-0-0-0-0-1-1-1-1-4-4-4-4-2-2-2-2-0-0-0-0-2-2-2-2-|

Guitar 2
B -----------------------------------------------------------------|
F#-----------------------------------------------------------------|
D -----------------------------------------------------------------|
A -----------------------------------------------------------------|
E -----------------------------------------------------------------|
A -0-0-0-0-4-4-4-4-0-0-0-0-1-1-1-1-4-4-4-4-2-2-2-2-0-0-0-0-2-2-2-2-|

===================================================================

Guitar 1
B -----------------------------------------------------------------|
F#-----------------------------------------------------------------|
D -----------------------------------------------------------------|
A ---------8~~~~~~-7~~~~~~---------8~~~~~~-------------------------|
E ---------8~~~~~~-7~~~~~~---------8~~~~~~-------------------------|
A -0-0-0-0-8~~~~~~-7~~~~~~-0-0-0-0-8~~~~~~-0---0~~~~~~-0---0~~~~~~-|
Pm . . . . .       .       . . . . .

Guitar 2
B -----------------------------------------------------------------|
F#-----------------------------------------------------------------|
D -----------------------------------------------------------------|
A ---------8~~~~~~-7~~~~~~---------8~~~~~~-------------------------|
E ---------8~~~~~~-7~~~~~~---------8~~~~~~-----------------6~~~~~~-|
A -0-0-0-0-8~~~~~~-7~~~~~~-0-0-0-0-8~~~~~~-0---0~~~~~~-0-----------|
Pm . . . . .       .       . . . . .

===================================================================

Guitar 1
B -----------------------------------------------------------------|
F#-----------------------------------------------------------------|
D -----------------------------------------------------------------|
A -----------------------------------------------------------------|
E -----------------------------------------------------------------|
A -0-0-0-0-13-13-13-13-12-12-12-12-0-0-0-0-10~~~~~-0~~~~~~-0-0-0-0-|

Guitar 2
B -----------------------------------------------------------------|
F#-----------------------------------------------------------------|
D -----------------------------------------------------------------|
A -0-0-0-0-5--5--5--5--4--4--4--4--0-0-0-0-------------------------|
E -----------------------------------------6~~~~~~---------0-0-0-0-|
A -------------------------------------------------0~~~~~~---------|

===================================================================

Guitar 1
B -----------------------------------------------------------------|
F#-----------------------------------------------------------------|
D -----------------------------------------------------------------|
A -----------------------------------------------------------------|
E -------------------------------------------------3-3-3-3-6~~~~~~-|
A -8-8-8-8-7-7-7-7-7-7-7-7-5-5-5-5-5-5-5-5-5-5-5-5-----------------|

Guitar 2
B -----------------------------------------------------------------|
F#-----------------------------------------------------------------|
D -----------------------------------------------------------------|
A -----------------------------------------------------------------|
E -5-5-5-5-1-1-1-1-1-1-1-1-0-0-0-0-0-0-0-0-0-0-0-0-6-6-6-6-10~~~~~-|
A -----------------------------------------------------------------|

===================================================================

Guitar 1
B -----------------------------------------------------------------|
F#-----------------------------------------------------------------|
D -----------------------------------------------------------------|
A -----------------------------------------------------------------|
E -----------------------------------------------------------------|
A -0-0-0-0-4-4-4-4-0-0-0-0-1-1-1-1-4-4-4-4-2-2-2-2-0-0-0-0-2-2-2-2-|

Guitar 2
B -----------------------------------------------------------------|
F#-----------------------------------------------------------------|
D -----------------------------------------------------------------|
A -----------------------------------------------------------------|
E -----------------------------------------------------------------|
A -5-5-5-5-9-9-9-9-5-5-5-5-6-6-6-6-9-9-9-9-7-7-7-7-5-5-5-5-6-6-6-6-|

===================================================================

Guitar 1
B -----------------------------------------------------------------|
F#-----------------------------------------------------------------|
D -----------------------------------------------------------------|
A ---------8~~~~~~-7~~~~~~---------8~~~~~~-----8~~~~~~-----8~~~~~~-|
E ---------8~~~~~~-7~~~~~~---------8~~~~~~-----8~~~~~~-----8~~~~~~-|
A -0-0-0-0-8~~~~~~-7~~~~~~-0-0-0-0-8~~~~~~-0---8~~~~~~-0---8~~~~~~-|
Pm . . . . .       .       . . . . .       .   .       .   .

Guitar 2
B -----------------------------------------------------------------|
F#-----------------------------------------------------------------|
D -----------------------------------------------------------------|
A ---------8~~~~~~-7~~~~~~---------8~~~~~~-----8~~~~~~-----8~~~~~~-|
E ---------8~~~~~~-7~~~~~~---------8~~~~~~-----8~~~~~~-----8~~~~~~-|
A -0-0-0-0-8~~~~~~-7~~~~~~-0-0-0-0-8~~~~~~-0---8~~~~~~-0---8~~~~~~-|
Pm . . . . .       .       . . . . .       .   .       .   .

===================================================================

Guitar 1
B -----------------------------------------------------------------|
F#-----------------------------------------------------------------|
D -----------------------------------------------------------------|
A -----------------------------------------------------------------|
E -----------------------------------------------------------------|
A -0-0-0-0-13-13-13-13-12-12-12-12-0-0-0-0-10~~~~~-0~~~~~~-0-0-0-0-|

Guitar 2
B -----------------------------------------------------------------|
F#-----------------------------------------------------------------|
D -----------------------------------------------------------------|
A -0-0-0-0-5--5--5--5--4--4--4--4--0-0-0-0-------------------------|
E -----------------------------------------6~~~~~~---------0-0-0-0-|
A -------------------------------------------------0~~~~~~---------|

===================================================================

Guitar 1
B -----------------------------------------------------------------|
F#-----------------------------------------------------------------|
D -----------------------------------------------------------------|
A -----------------------------------------------------------------|
E -------------------------------------------------3-3-3-3-6~~~~~~-|
A -8-8-8-8-7-7-7-7-7-7-7-7-5-5-5-5-5-5-5-5-5-5-5-5-----------------|

Guitar 2
B -----------------------------------------------------------------|
F#-----------------------------------------------------------------|
D -----------------------------------------------------------------|
A -----------------------------------------------------------------|
E -5-5-5-5-1-1-1-1-1-1-1-1-0-0-0-0-0-0-0-0-0-0-0-0-6-6-6-6-10~~~~~-|
A -----------------------------------------------------------------|

===================================================================

Guitar 1
B -----------------------------------------------------------------|
F#-----------------------------------------------------------------|
D -----------------------------------------------------------------|
A -----------------------------------------------------------------|
E -----------------------------------------------------------------|
A -0-0-0-0-4-4-4-4-0-0-0-0-1-1-1-1-4-4-4-4-2-2-2-2-0-0-0-0-2-2-2-2-|

Guitar 2
B -----------------------------------------------------------------|
F#-----------------------------------------------------------------|
D -----------------------------------------------------------------|
A -----------------------------------------------------------------|
E -----------------------------------------------------------------|
A -5-5-5-5-9-9-9-9-5-5-5-5-6-6-6-6-9-9-9-9-7-7-7-7-5-5-5-5-6-6-6-6-|

===================================================================

Guitar 1
B -----------------------------------------------------------------|
F#-----------------------------------------------------------------|
D -----------------------------------------------------------------|
A ---------8~~~~~~-7~~~~~~---------8~~~~~~-------------------------|
E ---------8~~~~~~-7~~~~~~---------8~~~~~~-------------------------|
A -0-0-0-0-8~~~~~~-7~~~~~~-0-0-0-0-8~~~~~~-0---0~~~~~~-0---0~~~~~~-|
Pm . . . . .       .       . . . . .

Guitar 2
B -----------------------------------------------------------------|
F#-----------------------------------------------------------------|
D -----------------------------------------------------------------|
A ---------8~~~~~~-7~~~~~~---------8~~~~~~-------------------------|
E ---------8~~~~~~-7~~~~~~---------8~~~~~~-----------------6~~~~~~-|
A -0-0-0-0-8~~~~~~-7~~~~~~-0-0-0-0-8~~~~~~-0---0~~~~~~-0-----------|
Pm . . . . .       .       . . . . .

===================================================================
===================================================================


Verse 1

Guitar 1 & 2
B -----------------------------------------------------------------|
F#-----------------------------------------------------------------|
D -----------------------------------------------------------------|
A -0---8---7---0-----------0---8---7---0---4---5---1---4---0---1---|
E -0---8---7---0---3-------0---8---7---0---4---5---1---4---0---1---|
A -0---8---7---0-------5---0---8---7---0---4---5---1---4---0---1---|
Pm .   .   .   .           .   .   .   .   .   .   .   .   .

===================================================================

Guitar 1
B --------------------------------------------------------------------------|
F#--------------------------------------------------------------------------|
D --------------------------------------------------------------------------|
A -0---4---7---8---1---4---0---3*br---------0---0-----------1-----1-----1---|
E -0---4---7---8---1---4---0----------------0---0-----------1-----1-----1---|
A -0---4---7---8---1---4---0--------0-0-0-0-0---0---0-0-0-0-1---0-1---0-1---|
Pm .   .   .   .   .   .   .        . . . . .   .   . . . . .   . .   . .

Guitar 2
B --------------------------------------------------------------------------|
F#--------------------------------------------------------------------------|
D -----------------------------3*br-----------------------------------------|
A -0---4---7---8---1---4---0----------------0---0-----------1-----1-----1---|
E -0---4---7---8---1---4---0----------------0---0-----------1-----1-----1---|
A -0---4---7---8---1---4---0--------0-0-0-0-0---0---0-0-0-0-1---0-1---0-1---|
Pm .   .   .   .   .   .   .        . . . . .   .   . . . . .   . .   . .

===================================================================

Guitar 1 & 2
B -----------------------------------------------------------------|
F#-----------------------------------------------------------------|
D -----------------------------------------------------------------|
A ---------2-------1---------------2-------1---------------2-------|
E ---------2-------1---------------2-------1---------------2-------|
A -0-0-0-0-2-------1-------0-0-0-0-2-------1-------0-0-0-0-2-------|
Pm . . . . .       .       . . . . .       .       . . . . .

===================================================================

Guitar 1 & 2
B -----------------------------------------------------------------|
F#-----------------------------------------------------------------|
D -----------------------------------------------------------------|
A -1---------------2-------1---------------2-------1---------------|
E -1---------------2-------1---------------2-------1---------------|
A -1-------0-0-0-0-2-------1-------0-0-0-0-2-------1-------0-0-0-0-|
Pm .       . . . . .       .       . . . . .       .       . . . .

===================================================================

Guitar 1
B -----------------------------------------------------------------|
F#-----------------------------------------------------------------|
D -----------------------------------------------------------------|
A ---------2-------1---------------2-------1---------------2-------|
E ---------2-------1---------------2-------1---------------2-------|
A -0-0-0-0-2-------1-------0-0-0-0-2-------1-------0-0-0-0-2-------|
Pm . . . . .       .       . . . . .       .       . . . . .

Guitar 1
B -----------------------------------------------------------------|
F#-----------------------------------------------------------------|
D -----------------------------------------------------------------|
A ---------5-------4---------------5-------4---------------5-------|
E ---------5-------4---------------5-------4---------------5-------|
A -0-0-0-0-5-------4-------0-0-0-0-5-------4-------0-0-0-0-5-------|
Pm . . . . .       .       . . . . .       .       . . . . .

===================================================================

Guitar 1
B -----------------------------------------------------------------|
F#-----------------------------------------------------------------|
D -----------------------------------------------------------------|
A -1---------------2-------1---------------2-------1---------------|
E -1---------------2-------1---------------2-------1---------------|
A -1-------0-0-0-0-2-------1-------0-0-0-0-2-------1-------0-0-0-0-|
Pm .       . . . . .       .       . . . . .       .       . . . .

Guitar 2
B -----------------------------------------------------------------|
F#-----------------------------------------------------------------|
D -----------------------------------------------------------------|
A -4---------------5-------4---------------5-------4---------------|
E -4---------------5-------4---------------5-------4---------------|
A -4-------0-0-0-0-5-------4-------0-0-0-0-5-------4-------0-0-0-0-|
Pm .       . . . . .       .       . . . . .       .       . . . .

===================================================================
===================================================================


Bridge 1

Guitar 1
B -----------------|
F#-----------------|
D -----------------|
A -0-0-0-0---0---0-|
E -0-0-0-0---0---0-|
A -0-0-0-0---0---0-|
Pm . . . .   .   .

===================================================================
===================================================================


Breakdown 1

(x2)

Guitar 1 & 2
B -----------------------------------------------------------------|
F#-----------------------------------------------------------------|
D -----------------------------------------------------------------|
A -0-0-0-0---0---0-0-0-0-0---0---0---0-0-0-0-0---0---0-0-0-0-0---0-|
E -0-0-0-0---0---0-0-0-0-0---0---0---0-0-0-0-0---0---0-0-0-0-0---0-|
A -0-0-0-0---0---0-0-0-0-0---0---0---0-0-0-0-0---0---0-0-0-0-0---0-|
Pm . . . .   .   . . . . .   .   .   . . . . .   .   . . . . .   .

===================================================================

Guitar 1 & 2
B -----------------------------------------------------------------|
F#-----------------------------------------------------------------|
D -----------------------------------------------------------------|
A ---0---0-0-0-0-0---0---0-0-0-0-0---0---0---0---0-0-0-0-0---0---0-|
E ---0---0-0-0-0-0---0---0-0-0-0-0---0---0---0---0-0-0-0-0---0---0-|
A ---0---0-0-0-0-0---0---0-0-0-0-0---0---0---0---0-0-0-0-0---0---0-|
Pm   .   . . . . .   .   . . . . .   .   .   .   . . . . .   .   .

===================================================================
===================================================================


Pre Chorus 1

Guitar 1
B -----------------------------------------------------------------|
F#-----------------------------------------------------------------|
D -----------------------------------------------------------------|
A -----------------------------------------------------------------|
E -----------------------------------------------------------------|
A -0-0-0-0-0-----------------------------------------------0-0-0-0-|
Pm . . . . .                                               . . . .

Guitar 2
B -----------------------------------------------------------------|
F#-----------------------------------------------------------------|
D -----------------------------------------------------------------|
A ---------2-------1---------------2-------1-------0---------------|
E ---------2-------1---------------2-------1-------0---------------|
A -0-0-0-0-2-------1-------0-0-0-0-2-------1-------0-------0-0-0-0-|
Pm . . . . .       .       . . . . .       .       .       . . . .

===================================================================

Guitar 1
B -----------------------------------------------------------------|
F#-----------------------------------------------------------------|
D -----------------------------------------------------------------|
A -----------------------------------------------------------------|
E -----------------------------------------------------------------|
A -0---------------------------------------0-0-0-0-0-------0-0-0-0-|
Pm .                                       . . . . .       . . . .

Guitar 2
B -----------------------------------------------------------------|
F#-----------------------------------------------------------------|
D -----------------------------------------------------------------|
A -----------------2-------1-------0-------------------------------|
E -----------------2-------1-------0-------------------------------|
A -0-------0-0-0-0-2-------1-------0-------0-0-0-0-0-------0-0-0-0-|
Pm .       . . . . .       .       .       . . . . .       . . . .

===================================================================

Guitar 1
B -----------------------------------------------------------------|
F#-----------------------------------------------------------------|
D -----------------------------------------------------------------|
A -----------------------------------------------------------------|
E -----------------------------------------------------------------|
A -0-------0-0-0-0-0---------------------------------------0-0-0-0-|
Pm .       . . . . .                                       . . . .

Guitar 2
B -----------------------------------------------------------------|
F#-----------------------------------------------------------------|
D -----------------------------------------------------------------|
A -------------------------1-------0---------------2---------------|
E -------------------------1-------0---------------2---------------|
A -0-------0-0-0-0-2-2-2-2-1-------0-------0-0-0-0-2-------0-0-0-0-|
Pm .       . . . . . . . . .       .       . . . . .       . . . .

===================================================================

Guitar 1
B -----------------------------------------------------------------|
F#-----------------------------------------------------------------|
D -----------------------------------------------------------------|
A -----------------------------------------------------------------|
E -----------------------------------------------------------------|
A -0-------0-0-0-0-0-----------------------------------------------|
Pm .       . . . . .

Guitar 2
B -----------------------------------------------------------------|
F#-----------------------------------------------------------------|
D -----------------------------------------------------------------|
A -------------------------0-------2-------1-------0-------1-------|
E -------------------------0-------2-------1-------0-------1-------|
A -0-------0-0-0-0-0-------0-------2-------1-------0-------1-------|
Pm .       . . . . .       .       .       .       .       .

===================================================================

Guitar 1
B -----------------------------------------------------------------|
F#-----------------------------------------------------------------|
D -----------------------------------------------------------------|
A -----------------------------------------------------------------|
E -----------------------------------------------------------------|
A -0-0-0-0-0-----------------------------------------------0-0-0-0-|
Pm . . . . .                                               . . . .

Guitar 2
B -----------------------------------------------------------------|
F#-----------------------------------------------------------------|
D -----------------------------------------------------------------|
A ---------2-------1-------0---------------1-------0---------------|
E ---------2-------1-------0---------------1-------0---------------|
A -0-0-0-0-2-------1-------0-------2-2-2-2-1-------0-------0-0-0-0-|
Pm . . . . .       .       .       . . . . .       .       . . . .

===================================================================

Guitar 1
B -----------------------------------------------------------------|
F#-----------------------------------------------------------------|
D -----------------------------------------------------------------|
A -----------------------------------------------------------------|
E -----------------------------------------------------------------|
A -0---------------------------------------0-0-0-0-0-------0-0-0-0-|
Pm .                                       . . . . .       . . . .

Guitar 2
B -----------------------------------------------------------------|
F#-----------------------------------------------------------------|
D -----------------------------------------------------------------|
A ---------0---------------1-------0-------------------------------|
E ---------0---------------1-------0-------------------------------|
A -0-------0-------2-2-2-2-1-------0-------0-0-0-0-0-------0-0-0-0-|
Pm .       .       . . . . .       .       . . . . .       . . . .

===================================================================

Guitar 1
B -----------------------------------------------------------------|
F#-----------------------------------------------------------------|
D -----------------------------------------------------------------|
A -----------------------------------------------------------------|
E -----------------------------------------------------------------|
A -0-------0-0-0-0-0---------------------------------------0-0-0-0-|
Pm .       . . . . .                                       . . . .

Guitar 2
B -----------------------------------------------------------------|
F#-----------------------------------------------------------------|
D -----------------------------------------------------------------|
A ---------------------------------2-------1-------0---------------|
E ---------------------------------2-------1-------0---------------|
A -0-------0-0-0-0-0-------0-0-0-0-2-------1-------0-------0-0-0-0-|
Pm .       . . . . .       . . . . .       .       .       . . . .

===================================================================

Guitar 1
B -----------------------------------------------------------------|
F#-----------------------------------------------------------------|
D -----------------------------------------------------------------|
A -----------------------------------------------------------------|
E -----------------------------------------------------------------|
A -0-------0-0-0-0-0-----------------------------------------------|
Pm .       . . . . .

Guitar 2
B -----------------------------------------------------------------|
F#-----------------------------------------------------------------|
D -----------------------------------------------------------------|
A -------------------------0-------2-------1-------0-------1-------|
E -------------------------0-------2-------1-------0-------1-------|
A -0-------0-0-0-0-0-------0-------2-------1-------0-------1-------|
Pm .       . . . . .       .       .       .       .       .

===================================================================

Guitar 1 & 2
B -----------------------------------------------------------------|
F#-----------------------------------------------------------------|
D -----------------------------------------------------------------|
A -0-------0---0-------0-------0---0---0---0-----------------------|
E -0-------0---0-------0-------0---0---0---0-----------------------|
A -0-------0---0-------0-------0---0---0---0-----------------------|

===================================================================
===================================================================


Chorus

Guitar 1
B -----------------------------------------------------------------|
F#-----------------------------------------------------------------|
D -------------------------------------5---5---5---5---5---5---5---|
A -2---2---2---2---2---2---2---2---2---5---5---5---5---5---5---5---|
E -2---2---2---2---2---2---2---2---2---3---3---3---3---3---3---3---|
A -2---2---2---2---2---2---2---2---2-------------------------------|

Guitar 2
B -24-20----------------------------------------20-|
F#-------24-20----------------------------20-24----|
D -------------21-17----------------17-21----------|
A -------------------21-17----17-21----------------|
E -------------------------19----------------------|
A -------------------------------------------------|

Guitar 2 continued
B -24-20-------------------------------------------|
F#-------24-20-------------------------------------|
D -------------21-17----------------17-21-17-------|
A -------------------21-17----17-21----------21-17-|
E -------------------------19----------------------|
A -------------------------------------------------|

===================================================================

Guitar 1
B -----------------------------------------------------|
F#-----------------------------------------------------|
D -5---------------------------------------------------|
A -5---------------------------------------------------|
E –3---------------------------------------------------|
A –----0-0-0---0-0-0---0-0-0-------0-0-0-------0-0-0---|
Pm     . . .   . . .   . . .       . . .       . . .

Guitar 1 continued
B ---------------------------------------------------------|
F#---------------------------------------------------------|
D ---------------------------------------------------------|
A ---------------------------------------------------------|
E –--------------------------------------------------------|
A –0-0-0---0-0-0---0-0-0---0-0-0-------0-0-0-------0-0-0---|
Pm . . .   . . .   . . .   . . .       . . .       . . .

Guitar 2
B -24-20----------------------------------------20-|
F#-------24-20----------------------------20-24----|
D -------------21-17----------------17-21----------|
A -------------------21-17----17-21----------------|
E -------------------------19----------------------|
A -------------------------------------------------|

Guitar 2 continued
B -24-20-------------------------------------------|
F#-------24-20-------------------------------------|
D -------------21-17----------------17-21-17-------|
A -------------------21-17----17-21----------21-17-|
E -------------------------19----------------------|
A -------------------------------------------------|

===================================================================

Guitar 1
B -----------------------------------------------------------------|
F#-----------------------------------------------------------------|
D -------------------------------------5---5---5---5---5---5---5---|
A -3---3---3---3---3---3---3---3---3---5---5---5---5---5---5---5---|
E -3---3---3---3---3---3---3---3---3---3---3---3---3---3---3---3---|
A -3---3---3---3---3---3---3---3---3-------------------------------|

Guitar 2
B -24-20----------------------------------------20-|
F#-------24-20----------------------------20-24----|
D -------------21-17----------------17-21----------|
A -------------------21-17----17-21----------------|
E -------------------------19----------------------|
A -------------------------------------------------|

Guitar 2 continued
B -24-20-------------------------------------------|
F#-------24-20-------------------------------------|
D -------------21-17----------------17-21-17-------|
A -------------------21-17----17-21----------21-17-|
E -------------------------19----------------------|
A -------------------------------------------------|

===================================================================

Guitar 1
B -----------------------------------------------------|
F#-----------------------------------------------------|
D -5---------------------------------------------------|
A -5---------------------------------------------------|
E –3---------------------------------------------------|
A –----0-0-0---0-0-0---0-0-0-------0-0-0-------0-0-0---|
Pm     . . .   . . .   . . .       . . .       . . .

Guitar 1 continued
B ---------------------------------------------------------|
F#---------------------------------------------------------|
D ---------------------------------------------------------|
A ---------------------------------------------------------|
E –--------------------------------------------------------|
A –0-0-0---0-0-0---0-0-0---0-0-0-------0-0-0-------0-0-0---|
Pm . . .   . . .   . . .   . . .       . . .       . . .

Guitar 2
B -24-20----------------------------------------20-|
F#-------24-20----------------------------20-24----|
D -------------21-17----------------17-21----------|
A -------------------21-17----17-21----------------|
E -------------------------19----------------------|
A -------------------------------------------------|

Guitar 2 continued
B -24-20-------------------------------------------|
F#-------24-20-------------------------------------|
D -------------21-17----------------17-21-17-------|
A -------------------21-17----17-21----------21-17-|
E -------------------------19----------------------|
A -------------------------------------------------|

===================================================================
===================================================================


Bridge 2

Guitar 1
B -----------------------------------------------------------------|
F#-------------------13-15-----------------------------------------|
D -------------12-14-----------------------------------------------|
A -------12-13-----------------------------------------------------|
E -12-13-----------------------------------------------------------|
A -------------------------13-13-13-13-0-0-0-0-12-12-12-12-0-0-0-0-|

Guitar 2
B -----------------------------------------------------------------|
F#-----------------------------------------------------------------|
D -21-17-------21-17-----------------------------------------------|
A -------21-17-------21-17-----------------------------------------|
E -----------------------------------------------------------------|
A -------------------------13-13-13-13-0-0-0-0-12-12-12-12-0-0-0-0-|

===================================================================

Guitar 1 & 2
B -----------------------------------------------------------------|
F#-----------------------------------------------------------------|
D -------------------------8~~~~~~---------------------------------|
A ---------3-------3-------7~~~~~~---------------------------------|
E ---------3-------3---------------------------------------5---5---|
A -3-3-3-3-3-------3---------------3---3---3~~~~~~-0---3-----------|
Pm . . . . .       .

===================================================================

Guitar 1 & 2
B -----------------------------------------------------------------|
F#-----------------------------------------------------------------|
D ---------------------------------------------------------8~~~~~~-|
A -----------------------------------------3-------3-------7~~~~~~-|
E -5~~~~~~---------3---3---3~~~~~~---------3-------3---------------|
A ---------0---3-------------------3-3-3-3-3-------3---------------|

===================================================================

Guitar 1 & 2
B -----------------------------------------|
F#-----------------------------------------|
D -----------------------------------------|
A -----------------------------------------|
E -----------------------------------------|
A -13-13-13-13-0-0-0-0-11-11-11-11-0-0-0-0-|

===================================================================
===================================================================


Verse 2

(x2)

Guitar 1
B -----------------------------------------------------------------|
F#-----------------------------------------------------------------|
D -----------------------------------------------------------------|
A -----------------------------------------------------------------|
E -----6---5-------3---0-----------------------------------3---6---|
A -0-----------0-----------0---8---5---0---5---7---8---7-----------|
Pm .           .           .           .   .   .   .   .

Guitar 2
B -----------------------------------------------------------------|
F#-----------------------------------------------------------------|
D -----------------------------------------------------------------|
A -----------------------------------------------------------------|
E -----10--9-----------------------------------------------6---10--|
A -0-----------0---13--12--0---12--10--0---10--12--13--12----------|
Pm .           .           .           .   .   .   .   .

===================================================================

Guitar 1
B -----------------------------------------------------------------|
F#-----------------------------------------------------------------|
D -----------------------------------------------------------------|
A -----------------------------------------------------------------|
E -----------------------------------------------------------------|
A -0---7---8---7---8---7---0---7---0---7---8---7---8---7---0---7---|
Pm .   .   .   .   .   .   .   .   .   .   .   .   .   .   .   .

Guitar 2
B -----------------------------------------------------------------|
F#-----------------------------------------------------------------|
D -----------------------------------------------------------------|
A -----------------------------------------------------------------|
E -----------------------------------------------------------------|
A -0---10--12--10--12--10--0---10--0---10--12--10--12--10--0---10--|
Pm .   .   .   .   .   .   .   .   .   .   .   .   .   .   .   .

===================================================================
===================================================================


Breakdown 2

Guitar 1
B -----------------------------------------------------------------|
F#-----------------------------------------------------------------|
D -----------------------------------------------------------------|
A -----------------------------------------------------------------|
E ---------6~~~~~~-5~~~~~~---------3~~~~~~-----------------1~~~~~~-|
A -0-0-0-0-----------------0-0-0-0---------4~~~~~~-0-0-0-0---------|
Pm . . . .                 . . . .                 . . . .

Guitar 2
B -----------------------------------------------------------------|
F#-----------------------------------------------------------------|
D -----------------------------------------------------------------|
A -----------------------------------------------------------------|
E -----------------------------------------------------------------|
A -0-0-0-0-----------------0-0-0-0-----------------0-0-0-0---------|
Pm . . . .                 . . . .                 . . . .

===================================================================

Guitar 1
B -----------------------------------------------------------------|
F#-----------------------------------------------------------------|
D -----------------------------------------------------------------|
A -----------------------------------------------------------------|
E -0~~~~~~-----------------------------------------3~~~~~~-6~~~~~~-|
A ---------0-0-0-0-3~~~~~~-4~~~~~~-1~~~~~~-3~~~~~~-----------------|
Pm         . . . .

Guitar 2
B -----------------------------------------------------------------|
F#-----------------------------------------------------------------|
D -----------------------------------------------------------------|
A -----------------------------------------------------------------|
E -----------------------------------------------------------------|
A ---------0-0-0-0-------------------------------------------------|
Pm         . . . .

===================================================================

Guitar 1
B -----------------------------------------------------------------|
F#-----------------------------------------------------------------|
D -----------------------------------------------------------------|
A -----------------------------------------------------------------|
E -----------------------------------------------------------------|
A -0-0-0-0-5~~~~~~-0-0-0-0-1~~~~~~-5~~~~~~-4~~~~~~-0-0-0-0-1~~~~~~-|
Pm . . . .         . . . .                         . . . .

Guitar 2
B -----------------------------------------------------------------|
F#-----------------------------------------------------------------|
D -----------------------------------------------------------------|
A -----------------------------------------------------------------|
E -----------------------------------------------------------------|
A -0-0-0-0---------0-0-0-0-------------------------0-0-0-0---------|
Pm . . . .         . . . .                         . . . .

===================================================================

Guitar 1
B -----------------------------------------------------------------|
F#-----------------------------------------------------------------|
D -----------------------------------------------------------------|
A -----------------------------------------------------------------|
E ---------0~~~~~~-1~~~~~~-0~~~~~~-1~~~~~~-0~~~~~~---------5~~~~~~-|
A -0-0-0-0-----------------------------------------5~~~~~~---------|
Pm . . . .

Guitar 2
B -----------------------------------------------------------------|
F#-----------------------------------------------------------------|
D -----------------------------------------------------------------|
A -----------------------------------------------------------------|
E -----------------------------------------------------------------|
A -0-0-0-0---------------------------------------------------------|
Pm . . . .

===================================================================

Guitar 1
B -----------------------------------------------------------------|
F#-----------------------------------------------------------------|
D -----------------------------------------------------------------|
A -----------------------------------------------------------------|
E ---------6-6-6-6-5~~~~~~---------3-3-3-3-----------------1-1-1-1-|
A -0-----------------------0---------------4~~~~~~-0---------------|
Pm .                       .                       .

Guitar 2
B -----------------------------------------------------------------|
F#-----------------------------------------------------------------|
D ------12-12-12-12-11~~~~---------8-8-8-8-----------------7-7-7-7-|
A -----------------------------------------7~~~~~~-----------------|
E -----------------------------------------------------------------|
A -0-----------------------0-----------------------0---------------|
Pm .                       .                       .

===================================================================

Guitar 1
B -----------------------------------------------------------------|
F#-----------------------------------------------------------------|
D -----------------------------------------------------------------|
A -----------------------------------------------------------------|
E -0~~~~~~-----------------------------------------3-3-3-3-6~~~~~~-|
A ---------0-------3-3-3-3-4-4-4-4-1-1-1-1-3-3-3-3-----------------|
Pm         .

Guitar 2
B -----------------------------------------------------------------|
F#-----------------------------------------------------------------|
D -6~~~~~~-----------------------------------------8-8-8-8-11~~~~~-|
A -----------------7-7-7-7-8-8-8-8-5-5-5-5-7-7-7-7-----------------|
E -----------------------------------------------------------------|
A ---------0-------------------------------------------------------|
Pm         .

===================================================================

Guitar 1
B -----------------------------------------------------------------|
F#-----------------------------------------------------------------|
D -----------------------------------------------------------------|
A -----------------------------------------------------------------|
E -----------------------------------------------------------------|
A -0-------5-5-5-5-0-------1-1-1-1-5-5-5-5-4~~~~~~-0-------1-1-1-1-|
Pm .               .                               .

Guitar 2
B -----------------------------------------------------------------|
F#-----------------------------------------------------------------|
D -----------------------------------------------------------------|
A ---------8-8-8-8---------5-5-5-5-8-8-8-8-7~~~~~~---------5-5-5-5-|
E -----------------------------------------------------------------|
A -0---------------0-------------------------------0---------------|
Pm .               .                               .

===================================================================

Guitar 1
B -----------------------------------------------------------------|
F#-----------------------------------------------------------------|
D -----------------------------------------------------------------|
A -----------------------------------------------------------------|
E ---------0-0-0-0-1-1-1-1-0-0-0-0-1-1-1-1-0-0-0-0---------5~~~~~~-|
A -0-----------------------------------------------5-5-5-5---------|
Pm .

Guitar 2
B -----------------------------------------------------------------|
F#-----------------------------------------------------------------|
D ---------7-7-7-7-8-8-8-8-7-7-7-7-8-8-8-8-7-7-7-7---------11~~~~~-|
A -------------------------------------------------8-8-8-8---------|
E -----------------------------------------------------------------|
A -0---------------------------------------------------------------|
Pm .

===================================================================
===================================================================


Bridge 3

Guitar 1
B -----------------------------------------------------------------|
F#-----------------------------------------------------------------|
D -----------------------------------------------------------------|
A -----------------------------------------------------------------|
E -----------------------------------------------------------------|
A -------------------------13-13-13-13-0-0-0-0-12-12-12-12-0-0-0-0-|

===================================================================
===================================================================


Interlude 1

Guitar 1
B -----------------------------------------------------------------|
F#-----------------------------------------------------------------|
D -----------------------------------------------------------------|
A -3~~~~~~~~~~~~~~~~~~~~~~~~~~~~~~~~~~~~~~~~~~~~~~~~~~~~~~-3~~~~~~-
E -3~~~~~~~~~~~~~~~~~~~~~~~~~~~~~~~~~~~~~~~~~~~~~~~~~~~~~~-3~~~~~~-
A -3~~~~~~~~~~~~~~~~~~~~~~~~~~~~~~~~~~~~~~~~~~~~~~~~~~~~~~-3~~~~~~-

Guitar 2
B ----------------------------------------------20-|
F#----------------------------17-20-17-------20----|
D ----------14-17-14----14-17-------------21-------|
A ----14-17----------17----------------22----------|
E -15----------------------------------------------|
A -------------------------------------------------|

Guitar 2 continued
B -24-20----------------20-24-20-------------------|
F#-------20----------20----------20----------------|
D ----------21----21----------------21-------------|
A -------------22----------------------22-21-19-18-|
E -------------------------------------------------|
A -------------------------------------------------|

===================================================================

Guitar 1
B -----------------------------------------------------------------|
F#-----------------------------------------------------------------|
D -----------------------------------------------------------------|
A -4~~~~~~~~~~~~~~~~~~~~~~~~~~~~~~~~~~~~~~~~~~~~~~~~~~~~~~-4~~~~~~-
E -4~~~~~~~~~~~~~~~~~~~~~~~~~~~~~~~~~~~~~~~~~~~~~~~~~~~~~~-4~~~~~~-
A -4~~~~~~~~~~~~~~~~~~~~~~~~~~~~~~~~~~~~~~~~~~~~~~~~~~~~~~-4~~~~~~-

Guitar 2
B ----------------------------------------------21-|
F#----------------------------18-21-18-------21----|
D ----------15-18-15----15-18-------------22-------|
A ----15-18----------18----------------23----------|
E -16----------------------------------------------|
A -------------------------------------------------|

Guitar 2 continued
B -25-21----------------21-25-21-------------------|
F#-------21----------21----------21----------------|
D ----------22----22----------------22-------------|
A -------------23----------------------23-22-20-19-|
E -------------------------------------------------|
A -------------------------------------------------|

===================================================================
===================================================================


Breakdown 3

Guitar 1 & 2 (x2)
B -----------------------------------------------------------------|
F#-----------------------------------------------------------------|
D -----------------------------------------------------------------|
A -----------------------------------------------------------------|
E -----------------------------------------------------------------|
A -0-0-0-0-0-------0-0-0-0-0-------0-0-0-0-0-------0-0-0-0-0-------|
Pm . . . . .       . . . . .       . . . . .       . . . . .

===================================================================

Guitar 1 & 2 (x2)
B -----------------------------------------------------------------|
F#-----------------------------------------------------------------|
D -----------------------------------------------------------------|
A -----------------------------------------------------------------|
E -----------------------------------------------------------------|
A -0-0-0-0-0-------0-0-0-0-0-------0-0-0-0-0-------0-0-0-0-0-------|
Pm . . . . .       . . . . .       . . . . .       . . . . .

===================================================================

Guitar 1 & 2
B -----------------------------------------------------------------|
F#-----------------------------------------------------------------|
D -----------------------------------------------------------------|
A -----------------------------------------------------------------|
E -----------------------------------------------------------------|
A -0-0-0-0-0---------------------------------------0-0-0-0-0-------|
Pm . . . . .                                       . . . . .

===================================================================

Guitar 1 & 2
B -----------------------------------------------------------------|
F#-----------------------------------------------------------------|
D -----------------------------------------------------------------|
A -----------------------------------------------------------------|
E -----------------------------------------------------------------|
A ---------------------------------0-0-0-0-0-------0-0-0-0-0-------|
Pm                                 . . . . .       . . . . .

===================================================================

Guitar 1 & 2
B -----------------------------------------------------------------|
F#-----------------------------------------------------------------|
D -----------------------------------------------------------------|
A -0---0---0---------------------------------------0---0---0-------|
E -0---0---0---------------------------------------0---0---0-------|
A -0---0---0---------------------------------------0---0---0-------|
Pm .   .   .                                       .   .   .

===================================================================

Guitar 1 & 2
B -----------------------------------------------------------------|
F#-----------------------------------------------------------------|
D -----------------------------------------------------------------|
A ---------------------------------0---0---0-------0---0---0-------|
E ---------------------------------0---0---0-------0---0---0-------|
A ---------------------------------0---0---0-------0---0---0-------|
Pm                                 .   .   .       .   .   .

===================================================================

Guitar 1 & 2
B -----------------------------------------------------------------|
F#-----------------------------------------------------------------|
D -----------------------------------------------------------------|
A -0---------------------------------------------------------------|
E -0---------------------------------------------------------------|
A -0---------------------------------------------------------------|
Pm .

===================================================================

Guitar 1 & 2
B -----------------------------------------------------------------|
F#-----------------------------------------------------------------|
D -----------------------------------------------------------------|
A -0---0---0---0---0---0---0---0---0-------0-------0---0-------0---|
E -0---0---0---0---0---0---0---0---0-------0-------0---0-------0---|
A -0---0---0---0---0---0---0---0---0-------0-------0---0-------0---|
Pm .   .   .   .   .   .   .   .   .       .       .   .       .

===================================================================
===================================================================


Chorus

Guitar 1
B -----------------------------------------------------------------|
F#-----------------------------------------------------------------|
D -------------------------------------5---5---5---5---5---5---5---|
A -2---2---2---2---2---2---2---2---2---5---5---5---5---5---5---5---|
E -2---2---2---2---2---2---2---2---2---3---3---3---3---3---3---3---|
A -2---2---2---2---2---2---2---2---2-------------------------------|

Guitar 2
B -24-20----------------------------------------20-|
F#-------24-20----------------------------20-24----|
D -------------21-17----------------17-21----------|
A -------------------21-17----17-21----------------|
E -------------------------19----------------------|
A -------------------------------------------------|

Guitar 2 continued
B -24-20-------------------------------------------|
F#-------24-20-------------------------------------|
D -------------21-17----------------17-21-17-------|
A -------------------21-17----17-21----------21-17-|
E -------------------------19----------------------|
A -------------------------------------------------|

===================================================================

Guitar 1
B -----------------------------------------------------|
F#-----------------------------------------------------|
D -5---------------------------------------------------|
A -5---------------------------------------------------|
E –3---------------------------------------------------|
A –----0-0-0---0-0-0---0-0-0-------0-0-0-------0-0-0---|
Pm     . . .   . . .   . . .       . . .       . . .

Guitar 1 continued
B ---------------------------------------------------------|
F#---------------------------------------------------------|
D ---------------------------------------------------------|
A ---------------------------------------------------------|
E –--------------------------------------------------------|
A –0-0-0---0-0-0---0-0-0---0-0-0-------0-0-0-------0-0-0---|
Pm . . .   . . .   . . .   . . .       . . .       . . .

Guitar 2
B -24-20----------------------------------------20-|
F#-------24-20----------------------------20-24----|
D -------------21-17----------------17-21----------|
A -------------------21-17----17-21----------------|
E -------------------------19----------------------|
A -------------------------------------------------|

Guitar 2 continued
B -24-20-------------------------------------------|
F#-------24-20-------------------------------------|
D -------------21-17----------------17-21-17-------|
A -------------------21-17----17-21----------21-17-|
E -------------------------19----------------------|
A -------------------------------------------------|

===================================================================

Guitar 1
B -----------------------------------------------------------------|
F#-----------------------------------------------------------------|
D -------------------------------------5---5---5---5---5---5---5---|
A -3---3---3---3---3---3---3---3---3---5---5---5---5---5---5---5---|
E -3---3---3---3---3---3---3---3---3---3---3---3---3---3---3---3---|
A -3---3---3---3---3---3---3---3---3-------------------------------|

Guitar 2
B -24-20----------------------------------------20-|
F#-------24-20----------------------------20-24----|
D -------------21-17----------------17-21----------|
A -------------------21-17----17-21----------------|
E -------------------------19----------------------|
A -------------------------------------------------|

Guitar 2 continued
B -24-20-------------------------------------------|
F#-------24-20-------------------------------------|
D -------------21-17----------------17-21-17-------|
A -------------------21-17----17-21----------21-17-|
E -------------------------19----------------------|
A -------------------------------------------------|

===================================================================

Guitar 1
B -----------------------------------------------------|
F#-----------------------------------------------------|
D -5---------------------------------------------------|
A -5---------------------------------------------------|
E –3---------------------------------------------------|
A –----0-0-0---0-0-0---0-0-0-------0-0-0-------0-0-0---|
Pm     . . .   . . .   . . .       . . .       . . .

Guitar 1 continued
B ---------------------------------------------------------|
F#---------------------------------------------------------|
D ---------------------------------------------------------|
A ---------------------------------------------------------|
E –--------------------------------------------------------|
A –0-0-0---0-0-0---0-0-0---0-0-0-------0-0-0-------0-0-0---|
Pm . . .   . . .   . . .   . . .       . . .       . . .

Guitar 2
B -24-20----------------------------------------20-|
F#-------24-20----------------------------20-24----|
D -------------21-17----------------17-21----------|
A -------------------21-17----17-21----------------|
E -------------------------19----------------------|
A -------------------------------------------------|

Guitar 2 continued
B -24-20-------------------------------------------|
F#-------24-20-------------------------------------|
D -------------21-17----------------17-21-17-------|
A -------------------21-17----17-21----------21-17-|
E -------------------------19----------------------|
A -------------------------------------------------|

===================================================================
===================================================================


Bridge 4

Guitar 1
B -------------------------------------------13-15-|
F#-------------------13-15-------------13-15-------|
D -------------12-14-------------12-14-------------|
A -------12-13-------------12-13-------------------|
E -12-13-------------------------------------------|
A -------------------------------------------------|

Guitar 2
B -------------------------------------------------|
F#-------------------------------------------------|
D -21-17-------21-17-------21-17-------21-17-------|
A -------21-17-------21-17-------21-17-------21-17-|
E -------------------------------------------------|
A -------------------------------------------------|

===================================================================

Guitar 1 & 2
B -----------------------------------------------------------------|
F#-----------------------------------------------------------------|
D -----------------------------------------------------------------|
A -----------------------------------------------------------------|
E -----------------------------------------------------------------|
A -13-13-13-13-0-0-0-0-12-12-12-12-0-0-0-0-------------------------|

===================================================================
===================================================================


Interlude 2

Guitar 1
B -----------------------------------------------------------------|
F#-----------------------------------------------------------------|
D -------------------------------------5---5---5---5---5---5---5---|
A -2---2---2---2---2---2---2---2---2---5---5---5---5---5---5---5---|
E -2---2---2---2---2---2---2---2---2---3---3---3---3---3---3---3---|
A -2---2---2---2---2---2---2---2---2-------------------------------|

Guitar 2
B -24-20----------------------------------------20-|
F#-------24-20----------------------------20-24----|
D -------------21-17----------------17-21----------|
A -------------------21-17----17-21----------------|
E -------------------------19----------------------|
A -------------------------------------------------|

Guitar 2 continued
B -24-20-------------------------------------------|
F#-------24-20-------------------------------------|
D -------------21-17----------------17-21-17-------|
A -------------------21-17----17-21----------21-17-|
E -------------------------19----------------------|
A -------------------------------------------------|

===================================================================

Guitar 1
B -----------------------------------------------------|
F#-----------------------------------------------------|
D -5---------------------------------------------------|
A -5---------------------------------------------------|
E –3---------------------------------------------------|
A –----0-0-0---0-0-0---0-0-0-------0-0-0-------0-0-0---|
Pm     . . .   . . .   . . .       . . .       . . .

Guitar 1 continued
B ---------------------------------------------------------|
F#---------------------------------------------------------|
D ---------------------------------------------------------|
A ---------------------------------------------------------|
E –--------------------------------------------------------|
A –0-0-0---0-0-0---0-0-0---0-0-0-------0-0-0-------0-0-0---|
Pm . . .   . . .   . . .   . . .       . . .       . . .

Guitar 2
B -24-20----------------------------------------20-|
F#-------24-20----------------------------20-24----|
D -------------21-17----------------17-21----------|
A -------------------21-17----17-21----------------|
E -------------------------19----------------------|
A -------------------------------------------------|

Guitar 2 continued
B -24-20-------------------------------------------|
F#-------24-20-------------------------------------|
D -------------21-17----------------17-21-17-------|
A -------------------21-17----17-21----------21-17-|
E -------------------------19----------------------|
A -------------------------------------------------|

===================================================================

Guitar 1
B -----------------------------------------------------------------|
F#-----------------------------------------------------------------|
D -------------------------------------5---5---5---5---5---5---5---|
A -3---3---3---3---3---3---3---3---3---5---5---5---5---5---5---5---|
E -3---3---3---3---3---3---3---3---3---3---3---3---3---3---3---3---|
A -3---3---3---3---3---3---3---3---3-------------------------------|

Guitar 2
B -24-20----------------------------------------20-|
F#-------24-20----------------------------20-24----|
D -------------21-17----------------17-21----------|
A -------------------21-17----17-21----------------|
E -------------------------19----------------------|
A -------------------------------------------------|

Guitar 2 continued
B -24-20-------------------------------------------|
F#-------24-20-------------------------------------|
D -------------21-17----------------17-21-17-------|
A -------------------21-17----17-21----------21-17-|
E -------------------------19----------------------|
A -------------------------------------------------|

===================================================================

Guitar 1
B -----------------------------------------------------|
F#-----------------------------------------------------|
D -5---------------------------------------------------|
A -5---------------------------------------------------|
E –3---------------------------------------------------|
A –----4-4-4---4-4-4---4-4-4-------4-4-4-------4-4-4---|
Pm     . . .   . . .   . . .       . . .       . . .

Guitar 1 continued
B ---------------------------------------------------------|
F#---------------------------------------------------------|
D ---------------------------------------------------------|
A ---------------------------------------------------------|
E –--------------------------------------------------------|
A –4-4-4---4-4-4---4-4-4---4-4-4-------4-4-4-------4-4-4---|
Pm . . .   . . .   . . .   . . .       . . .       . . .

Guitar 2
B -21-17----------------------------------------17-|
F#-------21-17----------------------------17-21----|
D -------------18-14----------------14-18----------|
A -------------------18-14----14-18----------------|
E -------------------------16----------------------|
A -------------------------------------------------|

Guitar 2 continued
B -21-17-------------------------------------------|
F#-------21-17-------------------------------------|
D -------------18-14----------------14-18-14-------|
A -------------------18-14----14-18----------18-14-|
E -------------------------16----------------------|
A -------------------------------------------------|

===================================================================
===================================================================


Bridge 5

Guitar 1
B -----------------|
F#-----------------|
D -----7/8\7-------|
A -0---x/x\x---4---|
E -0---5/6\5---4---|
A -0-----------4---|

===================================================================
===================================================================


Outro

Guitar 1
B -----------------------------------------------------------------|
F#-----------------------------------------------------------------|
D -----------------------------------------------------------------|
A -----------------------------------------------------------------|
E -----------------------------------------------------------------|
A -0-0-0-0-13-13-13-13-12-12-12-12-0-0-0-0-10~~~~~-0~~~~~~-0-0-0-0-|

Guitar 2
B -----------------------------------------------------------------|
F#-----------------------------------------------------------------|
D -----------------------------------------------------------------|
A -----------------------------------------------------------------|
E -----------------------------------------6~~~~~~-----------------|
A -0-0-0-0-13-13-13-13-12-12-12-12-0-0-0-0---------0~~~~~~-0-0-0-0-|

===================================================================

Guitar 1
B -----------------------------------------------------------------|
F#-----------------------------------------------------------------|
D -----------------------------------------------------------------|
A -----------------------------------------------------------------|
E -------------------------------------------------3-3-3-3-6~~~~~~-|
A -8-8-8-8-7-7-7-7-7-7-7-7-5-5-5-5-5-5-5-5-5-5-5-5-----------------|

Guitar 2
B -----------------------------------------------------------------|
F#-----------------------------------------------------------------|
D -----------------------------------------------------------------|
A -----------------------------------------------------------------|
E -------------------------------------------------6-6-6-6-10~~~~~-|
A -8-8-8-8-7-7-7-7-7-7-7-7-5-5-5-5-5-5-5-5-5-5-5-5-----------------|

===================================================================

Guitar 1
B -----------------------------------------------------------------|
F#-----------------------------------------------------------------|
D -----------------------------------------------------------------|
A -----------------------------------------------------------------|
E -----------------------------------------------------------------|
A -0-0-0-0-4-4-4-4-0-0-0-0-1-1-1-1-4-4-4-4-2-2-2-2-0-0-0-0-2-2-2-2-|

Guitar 2
B -----------------------------------------------------------------|
F#-----------------------------------------------------------------|
D -----------------------------------------------------------------|
A -----------------------------------------------------------------|
E -----------------------------------------------------------------|
A -0-0-0-0-4-4-4-4-0-0-0-0-1-1-1-1-4-4-4-4-2-2-2-2-0-0-0-0-2-2-2-2-|

===================================================================

Guitar 1
B -----------------------------------------------------------------|
F#-----------------------------------------------------------------|
D ---------------------------------------------------------7*~~b~~-|
A -0~~~~~~-10~~~~~-8~~~~~~-0-------8~~~~~~-7~~~~~~-0~~~~~~---------|
E -0~~~~~~-10~~~~~-8~~~~~~-0-------8~~~~~~-7~~~~~~-0~~~~~~---------|
A -0~~~~~~-10~~~~~-8~~~~~~-0-------8~~~~~~-7~~~~~~-0~~~~~~---------|
Pm .       .       .               .       .       .

Guitar 2
B -----------------------------------------------------------------|
F#---------------------------------------------------------7*~~b~~-|
D -----------------------------------------------------------------|
A -0~~~~~~-10~~~~~-8~~~~~~-0-------8~~~~~~-7~~~~~~-0~~~~~~---------|
E -0~~~~~~-10~~~~~-8~~~~~~-0-------8~~~~~~-7~~~~~~-0~~~~~~---------|
A -0~~~~~~-10~~~~~-8~~~~~~-0-------8~~~~~~-7~~~~~~-0~~~~~~---------|
Pm .       .       .               .       .       .

===================================================================

Guitar 1
B -----------------------------------------------------------------|
F#-----------------------------------------------------------------|
D -----------------------------------------------------------------|
A -----------------------------------------------------------------|
E -----------------------------------------------------------------|
A -0-0-0-0-13-13-13-13-12-12-12-12-0-0-0-0-10~~~~~-0~~~~~~-0-0-0-0-|

Guitar 2
B -----------------------------------------------------------------|
F#-----------------------------------------------------------------|
D -----------------------------------------------------------------|
A -0-0-0-0-5--5--5--5--4--4--4--4--0-0-0-0-------------------------|
E -----------------------------------------6~~~~~~---------0-0-0-0-|
A -------------------------------------------------0~~~~~~---------|

===================================================================

Guitar 1
B -----------------------------------------------------------------|
F#-----------------------------------------------------------------|
D -----------------------------------------------------------------|
A -----------------------------------------------------------------|
E -------------------------------------------------3-3-3-3-6~~~~~~-|
A -8-8-8-8-7-7-7-7-7-7-7-7-5-5-5-5-5-5-5-5-5-5-5-5-----------------|

Guitar 2
B -----------------------------------------------------------------|
F#-----------------------------------------------------------------|
D -----------------------------------------------------------------|
A -----------------------------------------------------------------|
E -5-5-5-5-1-1-1-1-1-1-1-1-0-0-0-0-0-0-0-0-0-0-0-0-6-6-6-6-10~~~~~-|
A -----------------------------------------------------------------|

===================================================================

Guitar 1
B -----------------------------------------------------------------|
F#-----------------------------------------------------------------|
D -----------------------------------------------------------------|
A -----------------------------------------------------------------|
E -----------------------------------------------------------------|
A -0-0-0-0-4-4-4-4-0-0-0-0-1-1-1-1-4-4-4-4-2-2-2-2-0-0-0-0-2-2-2-2-|

Guitar 2
B -----------------------------------------------------------------|
F#-----------------------------------------------------------------|
D -----------------------------------------------------------------|
A -----------------------------------------------------------------|
E -----------------------------------------------------------------|
A -5-5-5-5-9-9-9-9-5-5-5-5-6-6-6-6-9-9-9-9-7-7-7-7-5-5-5-5-6-6-6-6-|

===================================================================

Guitar 1
B -----------------------------------------------------------------|
F#-----------------------------------------------------------------|
D -----------------------------------------------------------------|
A ---------8~~~~~~-7~~~~~~---------8~~~~~~-------------------------|
E ---------8~~~~~~-7~~~~~~---------8~~~~~~-------------------------|
A -0-0-0-0-8~~~~~~-7~~~~~~-0-0-0-0-8~~~~~~-0---0~~~~~~-0---0~~~~~~-|
Pm . . . . .       .       . . . . .

Guitar 2
B -----------------------------------------------------------------|
F#-----------------------------------------------------------------|
D -----------------------------------------------------------------|
A ---------8~~~~~~-7~~~~~~---------8~~~~~~-------------------------|
E ---------8~~~~~~-7~~~~~~---------8~~~~~~-----------------6~~~~~~-|
A -0-0-0-0-8~~~~~~-7~~~~~~-0-0-0-0-8~~~~~~-0---0~~~~~~-0-----------|
Pm . . . . .       .       . . . . .

===================================================================
===================================================================
===================================================================


Tab Legend
h  - hammer-on
p  - pull-off
/  - slide up
\  - slide down
ps/- pickslide up
ps\- pickslide down
~  - let ring
pm.- palm mute
b  - bend
r  - return from bend
t  - finger tapping
*  - harmonic
x  - dead note
^  - Whammy bar
^\ - Whammy bar (hold down)

That’s the end of it! I hope this helped, and be sure to check out my cover if you are
having problems with the tab. Thanks, oh and one last thing... ROCK OUT!!!!
comments
print report bad tab
2 comments total.
+3 reply
skeetingbass wrote on June 19 2012, 03:47 pm

Sorry dude this is way off from the song.

+2 reply
knightskickass wrote on June 28 2012, 03:39 am

Man, this tab is confusing as hell. I'm not even sure if any of this goes with the song.

I want to post or [tab]
guest
You may want to rate the tab now too:
select rating
Please do not post tabs as comments. Select "correction" instead!