Oops, an error
Loading. Please wait.

Jerrys Breakdown Tab

ver1
ver1

Whole song

Interactive

More versions @911Tabs.com
84,705 views 136 this week
3 commentsread comments
1 2 3 4 5
excellent!
x 16
Autoscroll
+/-
esc
set tempo
stop
Contributor
Hey! There's an official Ultimate Guitar app which is ideal
for learning songs when you're away from computer. Get the app
WARNING: You are trying to view
                                    content from Ultimate-Guitar.com
                                    in an unauthorized application,
                                    which is prohibited.

                                    Please use an official Ultimate
                                    Guitar Tabs application for iPhone,
                                    iPad or Android to access legitimate
                                    chords, guitar, bass, and drum tabs
                                    from Ultimate-Guitar.com database.

                                    Type "ultimate guitar tabs" in Apple
                                    App Store's or Android Market's
                                    search to find the application.
Remember to comment and rate!

E|--0--0--0-|---------0-----0-----------0-----0---|---------0------------0-----0--|
B|----------|-----0-----0-----0-----0-----0-----0-|-----0-----0-----0----0-----0--|
G|--1--2--3-|-3h4---4-----4-----3h4---4-----4-----|-3h4---4-----0h1------1-----1--|
D|----------|-------------------------------------|-------------------2-----2-----|
A|----------|-------------------------------------|-------------------------------|
E|----------|----------------------------~~-------|-------------------------------|

E|-------0-----0-----------0-------|--------------------0--|
B|---0-----3-----0---0-----------0-|--------------------0--|
G|-4---6-----6-----4---3p2---0h1---|--------------------1--|
D|---------------------------------|-2--0---------------2--|
A|---------------------------------|-------2p1p0-----------|
E|---------------------------------|-------------3--0------|

Main Part (2 times, each time with different ending):

E||-7p5---0---0-----0---------------|--------0-----0-----0-------0-|
B||-----8---9---7-----0---0-----0---|--0-------7h8---7-----0-------|
G||---------------8-----7---6-------|----6h7-----------8-----5h6---|
D||---------------------------8---6h|7-----------------------------|
A||---------------------------------|------------------------------|
E||---------------------------------|------------------------------|

E|-7p5---0---0-----0---------------|------0-----0---------5----0----|
B|-----8---9---7-----0---0-----0---|--7-----7-----0---0-----0----0--|
G|---------------8-----7---6-------|----6-----------6---7-----8-----|
D|---------------------------8---7h|8---------8---------------------|
A|---------------------------------|--------------------------------|
E|---------------------------------|--------------------------------|


E|-7p5---0---0-----0---------------|--------0-----0-----0-------0-|
B|-----8---9---7-----0---0-----0---|--0-------7h8---7-----0-------|
G|---------------8-----7---6-------|----6h7-----------8-----5h6---|
D|---------------------------8---6h|7-----------------------------|
A|---------------------------------|------------------------------|
E|---------------------------------|------------------------------|

 |------------------------1st time ending---------------------------|

E|---0---0-----0------0---0-----0---|---------0-------0----0-----0--||
B|---------0-----0----------7-----9-|----9------0----------0-----0--||
G|-9---8-----9-----12--13-----9-----|-12----------0h1------1-----1--||
D|----------------------------------|------11-----------2-----2-----||
A|----------------------------------|-------------------------------||
E|----------------------------------|-------------------------------||

|------------------------2nd  time ending---------------------------|

E|---0---0-----0------0---0-----0---|---------0-------0----0--------||
B|---------0-----0----------7-----0-|-----0-----0----------0--------||
G|-9---8-----9-----12--13-----9-----|-3h4---4-----0h1------1--------||
D|----------------------------------|-------------------2-----2-----||
A|----------------------------------|-------------------------------||
E|----------------------------------|-------------------------------||

E|---------0------0-----------0------0---|--------0-----0----------0-----0----|
B|----9------9------9----9------9------9-|---9------9-----9---9------9-----9--|
G|------11-----------------11------------|-----11---------------11------------|
D|-11----------11-----10----------10-----|-9----------9-----8----------8------|
A|---------------------------------------|------------------------------------|
E|---------------------------------------|------------------------------------|

E|---------0------0-----------0-------0-|----0-----0-----0-------|
B|----8------8------8----9------0-------|----0-----0-----0-------|
G|------11------------12----------0h1---|----1-----1-----1-------|
D|-10----------10----------11-----------|-2-----2-----2-----2----|
A|--------------------------------------|------------------------|
E|--------------------------------------|------------------------|

E|---------0------0-----------0------0---|--------0-----0----------0-----0----|
B|----9------9------9----9------9------9-|---9------9-----9---9------9-----9--|
G|------11-----------------11------------|-----11---------------11------------|
D|-11----------11-----10----------10-----|-9----------9-----8----------8------|
A|---------------------------------------|------------------------------------|
E|---------------------------------------|------------------------------------|

E|---------0------0-------0-----0-----0---|-------0-----0------0-0-0--|
B|----8------8------8-------------5-----0-|---0-----3-----0-----------|
G|------11------------8h9---8h9-----5-----|-4---6-----6-----4--4-6-9--|
D|-10----------10-------------------------|---------------------------|
A|----------------------------------------|---------------------------|
E|----------------------------------------|---------------------------|

E|-7p5---0---0-----0---------------|--------0-----0-----0-------0-|
B|-----8---9---7-----0---0-----0---|--0-------7h8---7-----0-------|
G|---------------8-----7---6-------|----6h7-----------8-----5h6---|
D|---------------------------8---6h|7-----------------------------|
A|---------------------------------|------------------------------|
E|---------------------------------|------------------------------|

E|-7p5---0---0-----0---------------|------0-----0---------5----0----|
B|-----8---9---7-----0---0-----0---|--7-----7-----0---0-----0----0--|
G|---------------8-----7---6-------|----6-----------6---7-----8-----|
D|---------------------------8---7h|8---------8---------------------|
A|---------------------------------|--------------------------------|
E|---------------------------------|--------------------------------|

E|-7p5---0---0-----0---------------|--------0-----0-----0-------0-|
B|-----8---9---7-----0---0-----0---|--0-------7h8---7-----0-------|
G|---------------8-----7---6-------|----6h7-----------8-----5h6---|
D|---------------------------8---6h|7-----------------------------|
A|---------------------------------|------------------------------|
E|---------------------------------|------------------------------|

E|---0---0-----0------0---0-----0---|---------0-------0----0-------|
B|---------0-----0----------7-----0-|-----0-----0----------0-------|
G|-9---8-----9-----12--13-----9-----|-3h4---4-----0h1------1-------|
D|----------------------------------|-------------------2-----2----|
A|----------------------------------|------------------------------|
E|----------------------------------|------------------------------|

E|---------------------------|--------------------------|
B|---------------------------|--------------------------|
G|---------------------------|--------------------------|
D|-0h1----------0h1----------|-0h1----------0-----------|
A|---------------------------|------------------2h0-----|
E|---------------------------|------------------------3-|

E|---------------------------|--------------------------|
B|---------------------------|--------------------------|
G|---------------------------|--------------------------|
D|---------------------------|-4/6----------4-----------|
A|-5/7----------5/7----------|-5/7----------5-----------|
E|---------------------------|------------------7p5---3-|

E|-----------------------7-------------------------|--------------------3------------------------|
B|-----------------------7-------------------------|--------------------2------------------------|
G|-----------------------7-------------------------|--------------------2------------------------|
D|-----------------------6-------------------------|--------------------2------------------------|
A|-----------------------7-------------------------|-0-------------------------------------------|
E|-0-------------------------------------------0/5-|-----------------------------------------5/0-|

E|-------------------------------------------12-14-|-15-12-14----12------------------------------|
B|----------------------------------12-14----------|----------15----14-15-12-14------------------|
G|----------------------------13-14----------------|----------------------------15-------15-14~~-|
D|----------------------14-------------------------|---------------------------------------------|
A|----------12-14----------------------------------|---------------------------------------------|
E|-12----------------------------------------------|---------------------------------------------|

E|-----------7------------|---------------2-------------|-------------7--------------|
B|-----------7------------|---------------0-------------|-------------7--------------|
G|-----------7------------|---------------2-------------|-------------7--------------|
D|-----------6------------|---------------1-------------|-------------6--------------|
A|-----------7------------|---------------2-------------|-------------7--------------|
E|-0----------------------|-2---------------------------|-0----------------------0/5-|

E|------------------------|-----------------------------|----------------------------|
B|-/12-14--12~~--14-12-14-|-14/15--14--/12~~------------|-/12-14-12------------------|
G|-/13-14--13~~--14-13-14-|-14/15--14--/13~~------------|-/13-14-13-11---------------|
D|------------------------|-----------------------11-14-|--------------14-----11-14--|
A|------------------------|--------------------14-------|------------------14--------|
E|------------------------|-----------------------------|----------------------------|

E|-------------7------------|-------------------------|-------------------0--0--0-|
B|-------------8------------|-------------------------|---7-----------------------|
G|-------------6------------|-------------------------|---8---------------1--2--3-|
D|-------------7------------|-------------------------|---7-----------------------|
A|-0------------------------|-------------------------|---9-----------------------|
E|-----------------------7/-|-0---------------0-4-5-6-|-7-------7/--0-------------|

E|--------------------------|-------------------------|---------------------------|
B|-11-12-11-----------------|-/12--14--/15~~~~-----14-|-13------------------------|
G|-12-13-12-11--------------|-/13--14--/16~~~~-----14-|-12------------------------|
D|-------------14-----11-14-|-------------------------|-------11-14~~-------------|
A|-----------------14-------|-------------------------|----14---------------------|
E|--------------------------|-------------------------|---------------------------|

E|----0-----0--------0--------0-----0--------0------|
B|-------------0--------0--------------0--------0---|
G|-3-----4--------4--------3-----4--------4---------|
D|--------------------------------------------------|
A|--------------------------------------------------|
E|--------------------------------------------------|

E|----3-----3--------3--------3-----3--------3------|
B|-------------0--------0--------------0--------0---|
G|-4-----4--------4--------4-----4--------4---------|
D|--------------------------------------------------|
A|--------------------------------------------------|
E|--------------------------------------------------|

E|-----------------------12----------13-----------|
B|------------------------------------------------|
G|--------------10-11h12----11-12h13-----10-11h12-|
D|------------------------------------------------|
A|------------------------------------------------|
E|------------------------------------------------|

E|-12----------11----------10---------9-----------|
B|------------------------------------------------|
G|-----9-10h11------8-9h10------7-8h9----10-11h12-|
D|------------------------------------------------|
A|------------------------------------------------|
E|------------------------------------------------|

E|--4----4-------4--------4-----4--------0----|----------0--------0--------------5--------0-----|
B|----------0-------0--------------0--------0-|----7--------7--------0-----0--------0--------0--|
G|4----4-------4-------4-----4--------4-------|-------6-----------------6-----7--------8--------|
D|--------------------------------------------|-8--------------8--------------------------------|
A|--------------------------------------------|-------------------------------------------------|
E|--------------------------------------------|-------------------------------------------------|
 |
E|-12--------13---------12----------13----------|15--------15----------14----------14----------|
B|----------------------------------------------|----------------------------------------------|
G|---11-12h13--10-11h12----11-12h13----13-14h15-|--13-14h15---12-13h14----12-13h14----12-11h12-|
D|----------------------------------------------|----------------------------------------------|
A|----------------------------------------------|----------------------------------------------|
E|----------------------------------------------|----------------------------------------------|

E|---0----0-------0-------0----0------0----|---0---0-----0---------0-----0---|
B|-----------0-------0------------0------0-|-8---7---5-----0---2-----2-----0-|
G|-9----8-------9-------9----8-------9-----|-----------6-----2---2-----2-----|
D|-----------------------------------------|---------------------------------|
A|-----------------------------------------|---------------------------------|
E|-----------------------------------------|---------------------------------|

E|-12----------10----------9----------7----------|-5-------3--------2--------0---|
B|-----------------------------------------------|-------------------------------|
G|------8-9h10-------7-8h9------5-6h7------3-4h5-|---1-2h3---0-1h2----0-1h2------|
D|-----------------------------------------------|-------------------------------|
A|-----------------------------------------------|-------------------------------|
E|-----------------------------------------------|-------------------------------|

E|-------0-----0---------0-----0---|---------0----------0----|
B|---0-----0-----0---0-----3-----0-|---0-----------0----0----|
G|-4---4-----4-----4---6-----6-----|-4---3p2---0h1------1----|
D|---------------------------------|-----------------2-----2-|
A|---------------------------------|-------------------------|
E|---------------------------------|-------------------------|

E|-0-------0---------0------------|--------------------|
B|-3/5-----3----------------------|--------------------|
G|--------------2p1--0------------|--------------------|
D|--------------------------------|--------------------|
A|--------------------------------|-/7--5--------------|
E|--------------------------------|--------7/5--3---0--|

E|--------0------0-----------0------0---|--------0-----0----------0-----0----|
B|---9------9------9----9------9------9-|---9------9-----9---9------9-----9--|
G|-----11-----------------11------------|-----11---------------11------------|
D|11----------11-----10----------10-----|-9----------9-----8----------8------|
A|--------------------------------------|------------------------------------|
E|--------------------------------------|------------------------------------|
 |
 | Guitar 2
E|------------------------|--------9-------------------------|
B|------------------------|--/9---------12------9------------|
G|-------------8---9---10-|--------------------------11b12===|
D|-/11~~~-----------------|----------------------------------|
A|------------------------|----------------------------------|
E|------------------------|----------------------------------|

E|--------0------0-----------0-------0-|----0-----0-----0----|
B|---8------8------8----9------0-------|----0-----0-----0----|
G|-----11------------12----------0h1---|----1-----1-----1----|
D|10----------10----------11-----------|-2-----2-----2-----2-|
A|-------------------------------------|---------------------|
E|-------------------------------------|---------------------|

E|-------------------------------------|-----------------------|
B|-------------------------------------|-----------------------|
G|==r11~~~~~~~~~------------------9h11-|-9~~~---------9--------|
D|-------------------------------------|--------9h11------9--11|
A|-------------------------------------|-----------------------|
E|-------------------------------------|-----------------------|

E|--------0------0-----------0-----0--|-------0-----0----------0-----0---|
B|---9------9------9----9------9-----9|--9------9-----9---9------9-----9-|
G|-----11-----------------11----------|----11---------------11-----------|
D|11----------11-----10----------10---|9----------9-----8----------8-----|
A|------------------------------------|----------------------------------|
E|------------------------------------|----------------------------------|

E|-------------------------------|--------------------------------|
B|-------------------------------|--------------------------------|
G|-11b13.----------------------9-|-11b13---9~~~-------------9--11-|
D|----------------------9--11----|--------------------------------|
A|-------------------------------|--------------------------------|
E|-------------------------------|--------------------------------|


E|---------0------0-------0-----0-----0---|-------0-----0------0-0-0-|
B|----8------8------8-------------5-----0-|---0-----3-----0----------|
G|------11------------8h9---8h9-----5-----|-4---6-----6-----4--4-6-9-|
D|-10----------10-------------------------|--------------------------|
A|----------------------------------------|--------------------------|
E|----------------------------------------|--------------------------|
 |
E|----------------------------------------|-----------------------|
B|------~~~~~~~~~~~~~~~~~~~~~~~~~~~~~~~~~~|~~--------12~~~~~~~~---|
G|-11b12==================================|==12r11----------------|
D|----------------------------------------|-----------------------|
A|----------------------------------------|-----------------------|
E|----------------------------------------|-----------------------|

E|-7p5---0---0-----0---------------|--------0-----0-----0-------0|
B|-----8---9---7-----0---0-----0---|--0-------7h8---7-----0------|
G|---------------8-----7---6-------|----6h7-----------8-----5h6--|
D|---------------------------8---6h|7----------------------------|
A|---------------------------------|-----------------------------|
E|---------------------------------|-----------------------------|

E|-7p5---0---0-----0---------------|------0-----0---------5----0---|
B|-----8---9---7-----0---0-----0---|--7-----7-----0---0-----0----0-|
G|---------------8-----7---6-------|----6-----------6---7-----8----|
D|---------------------------8---7h|8---------8--------------------|
A|---------------------------------|-------------------------------|
E|---------------------------------|-------------------------------|

E|-7p5---0---0-----0---------------|--------0-----0-----0-------0-|
B|-----8---9---7-----0---0-----0---|--0-------7h8---7-----0-------|
G|---------------8-----7---6-------|----6h7-----------8-----5h6---|
D|---------------------------8---6h|7-----------------------------|
A|---------------------------------|------------------------------|
E|---------------------------------|------------------------------|

E|---0---0-----0------0---0-----0---|---------0-------0--------0----|
B|---------0-----0----------7-----0-|-----0-----0--------------0----|
G|-9---8-----9-----12--13-----9-----|-3h4---4-----0h1----------1----|
D|----------------------------------|-------------------2------2----|
A|----------------------------------|-------------------------------|
E|----------------------------------|-------------------------------|

E|-7p5---0---0-----0---------------|------------------------------0--|
B|-----8---9---7-----0---0-----0---|--------------3---------------0--|
G|---------------8-----7---6-----0-|------------2----2p1p0--------1--|
D|---------------------------8-----|------5p2p0------------2p0-2--2--|
A|---------------------------------|---------------------------------|
E|---------------------------------|-0-------------------------------|

E|---------------------------------|------------------------------0--|
B|---------------------------------|--------------3---------------0--|
G|---------------------------------|------------2----2p1p0--------1--|
D|---------------------------------|------5p2p0------------2p0-2--2--|
A|---------------------------------|---------------------------------|
E|---------------------------------|---------------------------------|
comments
print report bad tab
3 comments total.
0 reply
robostomo1 wrote on November 11 2009, 06:04 pm

THANK YOU =D

0 reply
Smokinjoerules1 wrote on April 17 2011, 02:09 pm

I LOVE YOU!

+1 reply
thelevellers wrote on May 6 2011, 02:41 pm

Thanks for driving me insane! :/ My brain can't keep all the notes in my head, but I can technically play it. ARGH!

Good work :)

I want to post or [tab]
guest
You may want to rate the tab now too:
select rating
Please do not post tabs as comments. Select "correction" instead!