Oops, an error
Loading. Please wait.

Closure Tab

ver6
ver6
More versions @911Tabs.com
3,719 views 3 this week
7 commentsread comments
1 2 3 4 5
accurate
x 6
Autoscroll
+/-
esc
set tempo
stop
Contributor
Difficulty
intermediate
Hey! There's an official Ultimate Guitar app which is ideal
for learning songs when you're away from computer. Get the app
WARNING: You are trying to view
                                    content from Ultimate-Guitar.com
                                    in an unauthorized application,
                                    which is prohibited.

                                    Please use an official Ultimate
                                    Guitar Tabs application for iPhone,
                                    iPad or Android to access legitimate
                                    chords, guitar, bass, and drum tabs
                                    from Ultimate-Guitar.com database.

                                    Type "ultimate guitar tabs" in Apple
                                    App Store's or Android Market's
                                    search to find the application.
                                    Closure                                     


                                                                  Sam The Ripper
Guitar



                                                      
E||------------------------|-------------------------|
B||------------------------|-------------------------|
G||--4----x--x--x--x--7----|--x--x--x--x--6----x--x--|
D||--x----x--x--x--x--x----|--x--x--x--x--x----x--x--|
A||--2----x--x--x--x--5----|--x--x--x--x--4----x--x--|
E||------------------------|-------------------------|


                                                                                
--------------------------||-------------------------|-------------------------|
--------------------------||-------------------------|-------------------------|
--x--x--7----6--7--------*||*--4----x--x--x--x--7----|--x--x--x--x--6----x--x--|
--x--x--x----x--x--------*||*--x----x--x--x--x--x----|--x--x--x--x--x----x--x--|
--x--x--5----4/-5--2--2---||---2----x--x--x--x--5----|--x--x--x--x--4----x--x--|
-------------------2--2---||-------------------------|-------------------------|


                          3x                                                    
--------------------------||-------------------------|-------------------------|
--------------------------||-------------------------|-------------------------|
--x--x--7----6/-7--------*||*------------------------|-------------------------|
--x--x--x----x--x--------*||*--0----0--2--0-----0----|--0--2--0-----2----2--4--|
--x--x--5----4/-5--2--2---||---0----0--2--0--2--0----|--0--2--0--2--2----2--4--|
-------------------2--2---||-----------0-----2-------|-----0-----2--0----0--2--|


                          2x                                                    
--------------------------||-------------------------|-------------------------|
--------------------------||-------------------------|-------------------------|
-------------------------*||*--7----7--7--7--7--7----|--7--7--7--7--7----7--7--|
--2-----2----2--4--2-----*||*--x----x--x--x--x--x----|--x--x--x--x--x----x--x--|
--2--2--2----2--4--2--2---||---5----5--5--5--5--5----|--5--5--5--5--5----5--5--|
--0--2--0----0--2--0--2---||-------------------------|-------------------------|


                                                                           
-----------------------|------------------------|-------------------------|
-----------------------|------------------------|-------------------------|
--7--7--7----6---------|------------------------|-------------------------|
--x--x--x----x---------|--5----5--5--5--5--5----|--5--5--5--5--5----5--5--|
--5--5--5----4----2----|--5----5--5--5--5--5----|--5--5--5--5--5----5--5--|
------------------2----|--3----3--3--3--3--3----|--3--3--3--3--3----3--3--|


                          2x                                              
--------------------------||------------------------|--------------------|
--------------------------||------------------------|--------------------|
-------------------------*||------------------------|--------------------|
--5--5--5----5--5--5--5--*||--5--5--5--5--2--0------|------2--0----------|
--5--5--5----5--5--5--5---||--5--5--5--5--2--0------|------2--0----------|
--3--3--3----3--3--3--3---||--3--3--3--3--0---------|------0-------------|


                                                     
|-------------------------|-------------------------|
|-------------------------|-------------------------|
|*--4----x--x--x--x--7----|--x--x--x--x--6----x--x--|
|*--x----x--x--x--x--x----|--x--x--x--x--x----x--x--|
|---2----x--x--x--x--5----|--x--x--x--x--4----x--x--|
|-------------------------|-------------------------|


                          3x                                                    
--------------------------||-------------------------|-------------------------|
--------------------------||-------------------------|-------------------------|
--x--x--7----6--7--------*||*------------------------|-------------------------|
--x--x--x----x--x--------*||*--0----0--2--0-----0----|--0--2--0-----2----2--4--|
--x--x--5----4/-5--2--2---||---0----0--2--0--2--0----|--0--2--0--2--2----2--4--|
-------------------2--2---||-----------0-----2-------|-----0-----2--0----0--2--|


                          2x                                                    
--------------------------||-------------------------|-------------------------|
--------------------------||-------------------------|-------------------------|
-------------------------*||*--7----7--7--7--7--7----|--7--7--7--7--7----7--7--|
--2-----2----2--4--2-----*||*--x----x--x--x--x--x----|--x--x--x--x--x----x--x--|
--2--2--2----2--4--2--2---||---5----5--5--5--5--5----|--5--5--5--5--5----5--5--|
--0--2--0----0--2--0--2---||-------------------------|-------------------------|


                                                                           
-----------------------|------------------------|-------------------------|
-----------------------|------------------------|-------------------------|
--7--7--7----6---------|------------------------|-------------------------|
--x--x--x----x---------|--5----5--5--5--5--5----|--5--5--5--5--5----5--5--|
--5--5--5----4----2----|--5----5--5--5--5--5----|--5--5--5--5--5----5--5--|
------------------2----|--3----3--3--3--3--3----|--3--3--3--3--3----3--3--|


                          2x                                              
--------------------------||------------------------|--------------------|
--------------------------||------------------------|--------------------|
-------------------------*||------------------------|--------------------|
--5--5--5----5--5--5--5--*||--5--5--5--5--2--0------|------2--0----------|
--5--5--5----5--5--5--5---||--5--5--5--5--2--0------|------2--0----------|
--3--3--3----3--3--3--3---||--3--3--3--3--0---------|------0-------------|


                                                                             
------------------------|-------------------------|-------------------------|
------------------------|-------------------------|-------------------------|
--4----x--x--x--x--7----|--x--x--x--x--6----x--x--|--x--x--7----6--7--------|
--x----x--x--x--x--x----|--x--x--x--x--x----x--x--|--x--x--x----x--x--------|
--2----x--x--x--x--5----|--x--x--x--x--4----x--x--|--x--x--5----4/-5--2--2--|
------------------------|-------------------------|-------------------2--2--|


                                                                             
------------------------|-------------------------|-------------------------|
------------------------|-------------------------|-------------------------|
--4----x--x--x--x--7----|--x--x--x--x--6----x--x--|--x--x--9----9--9--9--9--|
--x----x--x--x--x--x----|--x--x--x--x--x----x--x--|--x--x--x----x--x--x--x--|
--2----x--x--x--x--5----|--x--x--x--x--4----x--x--|--x--x--7----7--7--7--7--|
------------------------|-------------------------|-------------------------|


                                                     
|-------------------------|-------------------------|
|-------------------------|-------------------------|
|*--4----x--x--x--x--7----|--x--x--x--x--6----x--x--|
|*--x----x--x--x--x--x----|--x--x--x--x--x----x--x--|
|---2----x--x--x--x--5----|--x--x--x--x--4----x--x--|
|-------------------------|-------------------------|


                                                                                
--------------------------||-------------------------|-------------------------|
--------------------------||-------------------------|-------------------------|
--x--x--7----6--7--------*||*------------------------|-------------------------|
--x--x--x----x--x--------*||*--0----0--2--0-----0----|--0--2--0-----2----2--4--|
--x--x--5----4/-5--2--2---||---0----0--2--0--2--0----|--0--2--0--2--2----2--4--|
-------------------2--2---||-----------0-----2-------|-----0-----2--0----0--2--|


                          2x                                                    
--------------------------||-------------------------|-------------------------|
--------------------------||-------------------------|-------------------------|
-------------------------*||*--7----7--7--7--7--7----|--7--7--7--7--7----7--7--|
--2-----2----2--4--2-----*||*--x----x--x--x--x--x----|--x--x--x--x--x----x--x--|
--2--2--2----2--4--2--2---||---5----5--5--5--5--5----|--5--5--5--5--5----5--5--|
--0--2--0----0--2--0--2---||-------------------------|-------------------------|


                                                                           
-----------------------|------------------------|-------------------------|
-----------------------|------------------------|-------------------------|
--7--7--7----6---------|------------------------|-------------------------|
--x--x--x----x---------|--5----5--5--5--5--5----|--5--5--5--5--5----5--5--|
--5--5--5----4----2----|--5----5--5--5--5--5----|--5--5--5--5--5----5--5--|
------------------2----|--3----3--3--3--3--3----|--3--3--3--3--3----3--3--|


                                                                          
--------------------------||------------------------|--------------------|
--------------------------||--3--3--3--3------------|--------------------|
-------------------------*||--0--0--0--0------------|--------------------|
--5--5--5----5--5--5--5--*||--0--0--0--0--2--0------|------2--0----------|
--5--5--5----5--5--5--5---||--------------2--0------|------2--0----------|
--3--3--3----3--3--3--3---||--3--3--3--3--0---------|------0-------------|


                                                                             
|-------------------------|-------------------------|-----------------------|
|-------------------------|-------------------------|-----------------------|
|*--7----7--7--7--7--7----|--7--7--7--7--7----7--7--|--7--7--7----6---------|
|*--x----x--x--x--x--x----|--x--x--x--x--x----x--x--|--x--x--x----x---------|
|---5----5--5--5--5--5----|--5--5--5--5--5----5--5--|--5--5--5----4----2----|
|-------------------------|-------------------------|------------------2----|


                                                                               
------------------------|-------------------------|--------------------------||
------------------------|-------------------------|--------------------------||
------------------------|-------------------------|-------------------------*||
--5----5--5--5--5--5----|--5--5--5--5--5----5--5--|--5--5--5----5--5--5--5--*||
--5----5--5--5--5--5----|--5--5--5--5--5----5--5--|--5--5--5----5--5--5--5---||
--3----3--3--3--3--3----|--3--3--3--3--3----3--3--|--3--3--3----3--3--3--3---||


                                                                         
------------------------|--------------------|--------------------------|
------------------------|--------------------|--------------------------|
------------------------|--------------------|--7--7--7--6--6--6--------|
--5--5--5--5--2--0------|------2--0----------|--x--x--x--x--x--x--x--4--|
--5--5--5--5--2--0------|------2--0----------|--5--5--5--4--4--4--x--4--|
--3--3--3--3--0---------|------0-------------|--------------------x--2--|


                                                                           
-----------------------|-----------------------|--------------------------|
-----------------------|-----------------------|--------------------------|
-----------------------|-----------------------|--------7--7--7--6--6--6--|
----4----4--4--0----0--|----0--0---------------|--0-----x--x--x--x--x--x--|
----4----4--4--0----0--|----0--0--2----2----2--|--0--2--5--5--5--4--4--4--|
----2----2--2----------|----------2----2----2--|-----2--------------------|


                                                                           
------------------------|------------------------|------------------------|
------------------------|------------------------|------------------------|
------------------------|------------------------|------7--7--7--6--6--6--|
--x--4----4----4--4--0--|----0----0--------------|------x--x--x--x--x--x--|
--x--4----4----4--4--0--|----0----0--2--2--2--2--|------5--5--5--4--4--4--|
--x--2----2----2--2-----|------------2--2--2--2--|------------------------|


                                                                           
------------------------|-----------------------|-------------------------|
------------------------|-----------------------|-------------------------|
------------------------|-----------------------|-------------7--7--7--6--|
--x--4----4----4--4--0--|----0----0--0----------|-------0-----x--x--x--x--|
--x--4----4----4--4--0--|----0----0--0--2----2--|----2--0--2--5--5--5--4--|
--x--2----2----2--2-----|---------------2----2--|----2-----2--------------|


                                                                           
------------------------|------------------------|------------------------|
------------------------|------------------------|------------------------|
--6--6------------------|------------------------|------------------7--7--|
--x--x--x--4----4----4--|--4--0----0----0--0-----|------------0-----x--x--|
--4--4--x--4----4----4--|--4--0----0----0--0--2--|----2----2--0--2--5--5--|
--------x--2----2----2--|--2------------------2--|----2----2-----2--------|


                                                                           
-------------------------|-----------------------|------------------------|
-------------------------|-----------------------|------------------------|
--7--6--6--6-------------|-----------------------|------------------------|
--x--x--x--x--x--4----4--|----4--4--0----0----0--|--0---------------0-----|
--5--4--4--4--x--4----4--|----4--4--0----0----0--|--0--2----2----2--0--2--|
--------------x--2----2--|----2--2---------------|-----2----2----2-----2--|


                                                                           
--------------------------|-----------------------|-----------------------|
--------------------------|-----------------------|-----------------------|
--7--7--7--6--6--6--------|-----------------------|-----------------------|
--x--x--x--x--x--x--x--4--|----4----4--4--0----0--|----0------------------|
--5--5--5--4--4--4--x--4--|----4----4--4--0----0--|----0--2--2--2--2------|
--------------------x--2--|----2----2--2----------|-------2--2--2--2------|


      
----||
----||
----||
----||
----||
----||


comments
print report bad tab
7 comments total. Showing first comments.
0 reply
brucejr.007 wrote on July 25 2006, 11:53 am

this looks right im gunna have to try it out i tried learning it by ear and i got the same beginning as u must be right lol

-2 reply
brucejr.007 wrote on July 25 2006, 02:30 pm

ya its right ive been polayting it for ever now and i learned it like that awsome tab im gunna give u the hightest rating possibale this tab kicks ass its better than the other one he says drop b ya ok .......... lol
nice job

0 reply
365_days_gone wrote on February 8 2007, 07:37 pm

Wow...Chevelle actually playing higher than Drop B??

I want to post or [tab]
guest
You may want to rate the tab now too:
select rating
Please do not post tabs as comments. Select "correction" instead!