Oops, an error
Loading. Please wait.

Hats Off To The Bull Tab

ver1
ver1

Album

Whole song

More versions @911Tabs.com
11,238 views 33 this week
4 commentsread comments
1 2 3 4 5
excellent!
x 9
Autoscroll
+/-
esc
set tempo
stop
Contributor
Difficulty
novice
WARNING: You are trying to view
                                    content from Ultimate-Guitar.com
                                    in an unauthorized application,
                                    which is prohibited.

                                    Please use an official Ultimate
                                    Guitar Tabs application for iPhone,
                                    iPad or Android to access legitimate
                                    chords, guitar, bass, and drum tabs
                                    from Ultimate-Guitar.com database.

                                    Type "ultimate guitar tabs" in Apple
                                    App Store's or Android Market's
                                    search to find the application.
Artist: Chevelle
Album: Hats Off to the Bull
Tabbed by: MetalSlayer 09


1. Face to the Floor (drop c)

the top is the guitar line and the bottom is the bass.
Intro

So I was Thinking...



|-------|----------------------------------------------------------------------|
|-------|----------------------------------------------------------------------|
|-------|----------------------------------------------------------------------|
|-------|----------------------------------------------------------------------|
|-------|-----------5-3-0------------------5-3-0-----------------5-3-0---------|
|-12\-0-|-0-0-5-3-0-------5--3--0--0-5-3-0-------5-3b-0--0-5-3-0---------------|


|----------------------------|
|----------------------------|
|----------------------------|
|----------------------------|
|-----------------5-3-0------|
|-5-3-0--0-5-3-0--------5-5b-|



verse



  To pick up the tip doesn't mean a lot
|-----------------------------------------------------------------------------|
|-----------------------------------------------------------------------------|
|-----------------------------------------------------------------------------|
|-----------------------------------------------------------------------------|
|-------------------------5---3---0---------------------5-3-0-----------------|
|-----0----0--5--3--0----------------5--3--0--0--5-3-0---------5-3------------|
|
|-----------------------------------------------------------------------------|
|-----------------------------------------------------------------------------|
|-------------------------5---3---0---------------------5-3-0-----------------|
|-----0----0--5--3--0----------------5--3--0--0--5-3-0---------5-3------------|


      Feel it inside your drawers
|-----------------------------------------------------------------------------|
|-----------------------------------------------------------------------------|
|-----------------------------------------------------------------------------|
|-----------------------------------------------------------------------------|
|----------------------5--3--0---------------------5-3-0----------------------|
|-----0----0--5--3--0-----------5--3-0--0--5-3-0---------5b-------------------|
|
|------------------------------------------------------------------------------|
|------------------------------------------------------------------------------|
|----------------------5--3--0---------------------5-3-0-----------------------|
|-----0----0--5--3--0-----------5--3-0--0--5-3-0---------5---------------------|


  If  we own the night then spread it out
|-----------------------------------------------------------------------------|
|-----------------------------------------------------------------------------|
|-----------------------------------------------------------------------------|
|-----------------------------------------------------------------------------|
|--------------------------5--3---0----------------------5-3-0----------------|
|-----0----0--5--3------0--------------5--3--0--0--5-3-0---------5-3----------|
|
|-----------------------------------------------------------------------------|
|-----------------------------------------------------------------------------|
|--------------------------5--3---0----------------------5-3-0----------------|
|-----0----0--5--3------0--------------5--3--0--0--5-3-0---------5-3----------|

      Or  pack up   without a clue
|-----------------------------------------------------------------------------|
|-----------------------------------------------------------------------------|
|-----------------------------------------------------------------------------|
|-----------------------------------------------------------------------------|
|----------------------5--3--0---------------------5-3-0----------------------|
|-----0----0--5--3--0-----------5--3-0--0--5-3-0---------5b--3----------------|
|
|-----------------------------------------------------------------------------|
|-----------------------------------------------------------------------------|
|----------------------5--3--0---------------------5-3-0----------------------|
|-----0----0--5--3--0-----------5--3-0--0--5-3-0---------5---3----------------|


prechorus

  well cause by their own/ and by default/ time to vamanos
|------------------------------------------------------------------------------|
|------------------------------------------------------------10---------13-----|
|------------------------------------------------------------10---------12-----|
|-0---7----8--8-8-10----0---7-8--8-8-10--0--7-8--8-8-10--8-8-8----10-10-10-----|
|-0---7----8--8-8-10----0---7-8--8-8-10--0--7-8--8-8-10--8-8-8----10-10-10-----|
|-0---7----8--8-8-10----0---7-8--8-8-10--0--7-8--8-8-10--8-8-8----10-10-10-----|
|
|------------------------------------------------------------------------------|
|------------------------------------------------------------------------------|
|------------------------------------------------------------------------------|
|-0---7----8--8-8-10----0---7-8--8-8-10--0--7-8--8-8-10--8-8-8----10-10-10-----|

chorus


  like your face        getting forced     to the floor
|--------------------------------------------------------------------------------|
|--------------------------------------------------------------------------------|
|--------------------------------------------------------------------------------|
|-----------------5-3-----------------5-3-----------------5-3--------------------|
|-----------5-3-0-5-3-----------5-3-0-5-3-----------5-3-0-5-3-----------5-3-0----|
|-0-0-5-3-0-------5-3-0-0-5-3-0-------5-3-0-0-5-3-0-------5-3-0-0-5-3-0-------5b-|
|
|--------------------------------------------------------------------------------|
|--------------------------------------------------------------------------------|
|-----------5-3-0---------------5-3-0---------------5-3-0---------------5-3-0----|
|-0-0-5-3-0-------5-3-0-0-5-3-0-------5-3-0-0-5-3-0-------5-3-0-0-5-3-0-------5--|



verse



 well I    got a taste  of the benefits
|-----------------------------------------------------------------------------|
|-----------------------------------------------------------------------------|
|-----------------------------------------------------------------------------|
|-----------------------------------------------------------------------------|
|-------------------------5---3---0---------------------5-3-0-----------------|
|-----0----0--5--3--0----------------5--3--0--0--5-3-0---------5-3------------|
|
|-----------------------------------------------------------------------------|
|-----------------------------------------------------------------------------|
|-------------------------5---3---0---------------------5-3-0-----------------|
|-----0----0--5--3--0----------------5--3--0--0--5-3-0---------5-3------------|


      five  foot    of    change
|-----------------------------------------------------------------------------|
|-----------------------------------------------------------------------------|
|-----------------------------------------------------------------------------|
|-----------------------------------------------------------------------------|
|----------------------5--3--0---------------------5-3-0----------------------|
|-----0----0--5--3--0-----------5--3-0--0--5-3-0---------5b-------------------|
|
|-----------------------------------------------------------------------------|
|-----------------------------------------------------------------------------|
|----------------------5--3--0---------------------5-3-0----------------------|
|-----0----0--5--3--0-----------5--3-0--0--5-3-0---------5--------------------|


    Theres no better way to hash it out
|-----------------------------------------------------------------------------|
|-----------------------------------------------------------------------------|
|-----------------------------------------------------------------------------|
|-----------------------------------------------------------------------------|
|--------------------------5--3---0----------------------5-3-0----------------|
|-----0----0--5--3------0--------------5--3--0--0--5-3-0---------5-3----------|
|
|-----------------------------------------------------------------------------|
|-----------------------------------------------------------------------------|
|--------------------------5--3---0----------------------5-3-0----------------|
|-----0----0--5--3------0--------------5--3--0--0--5-3-0---------5-3----------|

      So lets set up your time to bail
|-----------------------------------------------------------------------------|
|-----------------------------------------------------------------------------|
|-----------------------------------------------------------------------------|
|-----------------------------------------------------------------------------|
|----------------------5--3--0---------------------5-3-0----------------------|
|-----0----0--5--3--0-----------5--3-0--0--5-3-0---------5b--3----------------|
|
|-----------------------------------------------------------------------------|
|-----------------------------------------------------------------------------|
|----------------------5--3--0---------------------5-3-0----------------------|
|-----0----0--5--3--0-----------5--3-0--0--5-3-0---------5---3----------------|


prechorus

  well cause now the cracks/ should we intervene?/ I hold this albatross
|------------------------------------------------------------------------------|
|------------------------------------------------------------10---------13-----|
|------------------------------------------------------------10---------12-----|
|-0---7----8--8-8-10----0---7-8--8-8-10--0--7-8--8-8-10--8-8-8----10-10-10-----|
|-0---7----8--8-8-10----0---7-8--8-8-10--0--7-8--8-8-10--8-8-8----10-10-10-----|
|-0---7----8--8-8-10----0---7-8--8-8-10--0--7-8--8-8-10--8-8-8----10-10-10-----|
|
|------------------------------------------------------------------------------|
|------------------------------------------------------------------------------|
|------------------------------------------------------------------------------|
|-0---7----8--8-8-10----0---7-8--8-8-10--0--7-8--8-8-10--8-8-8----10-10-10-----|


chorus


  like your face        getting forced     to the floor
|--------------------------------------------------------------------------------|
|--------------------------------------------------------------------------------|
|--------------------------------------------------------------------------------|
|-----------------5-3-----------------5-3-----------------5-3--------------------|
|-----------5-3-0-5-3-----------5-3-0-5-3-----------5-3-0-5-3-----------5-3-0----|
|-0-0-5-3-0-------5-3-0-0-5-3-0-------5-3-0-0-5-3-0-------5-3-0-0-5-3-0-------5b-|
|
|--------------------------------------------------------------------------------|
|--------------------------------------------------------------------------------|
|-----------5-3-0---------------5-3-0---------------5-3-0---------------5-3-0----|
|-0-0-5-3-0-------5-3-0-0-5-3-0-------5-3-0-0-5-3-0-------5-3-0-0-5-3-0-------5--|


   when either way      your way to         close to it all
|--------------------------------------------------------------------------------|
|--------------------------------------------------------------------------------|
|--------------------------------------------------------------------------------|
|-----------------5-3-----------------5-3-----------------5-3--------------------|
|-----------5-3-0-5-3-----------5-3-0-5-3-----------5-3-0-5-3-----------5-3-0----|
|-0-0-5-3-0-------5-3-0-0-5-3-0-------5-3-0-0-5-3-0-------5-3-0-0-5-3-0-------5b-|
|
|--------------------------------------------------------------------------------|
|--------------------------------------------------------------------------------|
|-----------5-3-0---------------5-3-0---------------5-3-0---------------5-3-0----|
|-0-0-5-3-0-------5-3-0-0-5-3-0-------5-3-0-0-5-3-0-------5-3-0-0-5-3-0-------5--|


interlude


      pay up      never       wait 'em out                         cover       me up       to you
|-------------------------------------------------------------------------------------------------|
|-------------------------------------------------------------------------------------------------|
|-------------------------------------------------------------------------------------------------|
|-5-3-5-3-x-x-x-x-5-3-x-x-x-x-5-3-5-3------------------------------5-3-x-x-x-x-5-3-x-x-x-x-5-3----|
|-5-3-5-3-x-x-x-x-5-3-x-x-x-x-5-3-5-3-----------5-3-0--------------5-3-x-x-x-x-5-3-x-x-x-x-5-3----|
|-5-3-5-3-x-x-x-x-5-3-x-x-x-x-5-3-5-3-0-0-5-3-0-------5-3-0-3-5-3--5-3-x-x-x-x-5-3-x-x-x-x-5-3-5b-|
|                                                         . . . .
|-------------------------------------------------------------------------------------------------|
|-------------------------------------------------------------------------------------------------|
|-------------------------------------------------------------------------------------------------|
|-5-3-5-3---------5-3----------5-3-5-3-0-0-5-3-0-------5-3-0-3-5-3--5-3--------5-3---------5-3-5--|
                                                          . . . .

                        take it all
|-------------------------------------------------------------------------------------------------|
|-------------------------------------------------------------------------------------------------|
|-------------------------------------------------------------------------------------------------|
|-------------------------------------------------------------------------------------------------|
|-3-5-3-5-3-5-3-5-3-6-3-5-3-5-3-5-3-5-3-5-3-6-3-5-3-5-3-5-3-5-3-5-3-6-3-5-3-5-3-5-3-5-3-5-3-6-3-5-|
|-0-0-0-0-0-0-0-0-0-0-0-0-0-0-0-0-0-0-0-0-0-0-0-0-0-0-0-0-0-0-0-0-0-0-0-0-0-0-0-0-0-0-0-0-0-0-0-0-|
|
|-------------------------------------------------------------------------------------------------|
|-------------------------------------------------------------------------------------------------|
|-3-5-3-5-3-5-3-5-3-6-3-5-3-5-3-5-3-5-3-5-3-6-3-5-3-5-3-5-3-5-3-5-3-6-3-5-3-5-3-5-3-5-3-5-3-6-3-5-|
|-------------------------------------------------------------------------------------------------|

                  your                mouth              blessed
|-------------------------------------------------------------------------------|
|-------------------------------------------------------------------------------|
|-------------------------------------------------------------------------------|
|-12-10-8-7-5-7-8-7---12-10-8-7-5-7-8-7---12-10-8-7-5-7-8-7---12-10-8-7-5-7-8-7-|
|-12-10-8-7-5-7-8-7---12-10-8-7-5-7-8-7---12-10-8-7-5-7-8-7---12-10-8-7-5-7-8-7-|
|-12-10-8-7-5-7-8-7---12-10-8-7-5-7-8-7---12-10-8-7-5-7-8-7---12-10-8-7-5-7-8-7-|
|
|-------------------------------------------------------------------------------|
|-------------------------------------------------------------------------------|
|-------------------------------------------------------------------------------|
|-12-10-8-7-5-7-8-7---12-10-8-7-5-7-8-7---12-10-8-7-5-7-8-7---12-10-8-7-5-7-8-7-|


                        take it all the way   right back down
|-------------------------------------------------------------------------------------------------|
|-------------------------------------------------------------------------------------------------|
|-------------------------------------------------------------------------------------------------|
|-------------------------------------------------------------------------------------------------|
|-3-5-3-5-3-5-3-5-3-6-3-5-3-5-3-5-3-5-3-5-3-6-3-5-3-5-3-5-3-5-3-5-3-6-3-5-3-5-3-5-3-5-3-5-3-6-3-5-|
|-0-0-0-0-0-0-0-0-0-0-0-0-0-0-0-0-0-0-0-0-0-0-0-0-0-0-0-0-0-0-0-0-0-0-0-0-0-0-0-0-0-0-0-0-0-0-0-0-|
|
|-------------------------------------------------------------------------------------------------|
|-------------------------------------------------------------------------------------------------|
|-3-5-3-5-3-5-3-5-3-6-3-5-3-5-3-5-3-5-3-5-3-6-3-5-3-5-3-5-3-5-3-5-3-6-3-5-3-5-3-5-3-5-3-5-3-6-3-5-|
|-------------------------------------------------------------------------------------------------|

                  cure                this               mess
|-------------------------------------------------------------------------------|
|-------------------------------------------------------------------------------|
|-------------------------------------------------------------------------------|
|-12-10-8-7-5-7-8-7---12-10-8-7-5-7-8-7---12-10-8-7-5-7-8-7---12-10-8-7-5-7-8-7-|
|-12-10-8-7-5-7-8-7---12-10-8-7-5-7-8-7---12-10-8-7-5-7-8-7---12-10-8-7-5-7-8-7-|
|-12-10-8-7-5-7-8-7---12-10-8-7-5-7-8-7---12-10-8-7-5-7-8-7---12-10-8-7-5-7-8-7-|
|
|-------------------------------------------------------------------------------|
|-------------------------------------------------------------------------------|
|-------------------------------------------------------------------------------|
|-12-10-8-7-5-7-8-7---12-10-8-7-5-7-8-7---12-10-8-7-5-7-8-7---12-10-8-7-5-7-8-7-|


  pay up      never     take it all
|----------------------------------|
|----------------------------------|
|----------------------------------|
|-5-3-x-x-x-x-5-3-x-x-x-x-5-3-5-3--|
|-5-3-x-x-x-x-5-3-x-x-x-x-5-3-5-3--|
|-5-3-x-x-x-x-5-3-x-x-x-x-5-3-5-3--|
|
|----------------------------------|
|----------------------------------|
|----------------------------------|
|-5-3----------5-3--------5-3-5-3--|

    take it all
|------------------------------------------------------------------------------|
|------------------------------------------------------------10---------13-----|
|------------------------------------------------------------10---------12-----|
|-0---7----8--8-8-10----0---7-8--8-8-10--0--7-8--8-8-10--8-8-8----10-10-10-----|
|-0---7----8--8-8-10----0---7-8--8-8-10--0--7-8--8-8-10--8-8-8----10-10-10-----|
|-0---7----8--8-8-10----0---7-8--8-8-10--0--7-8--8-8-10--8-8-8----10-10-10-----|
|
|------------------------------------------------------------------------------|
|------------------------------------------------------------------------------|
|------------------------------------------------------------------------------|
|-0---7----8--8-8-10----0---7-8--8-8-10--0--7-8--8-8-10--8-8-8----10-10-10-----|

chorus


  like your face        getting forced     to the floor
                                                       in a league of your own
|--------------------------------------------------------------------------------|
|--------------------------------------------------------------------------------|
|--------------------------------------------------------------------------------|
|-----------------5-3-----------------5-3-----------------5-3--------------------|
|-----------5-3-0-5-3-----------5-3-0-5-3-----------5-3-0-5-3-----------5-3-0----|
|-0-0-5-3-0-------5-3-0-0-5-3-0-------5-3-0-0-5-3-0-------5-3-0-0-5-3-0-------5b-|
|
|--------------------------------------------------------------------------------|
|--------------------------------------------------------------------------------|
|-----------5-3-0---------------5-3-0---------------5-3-0---------------5-3-0----|
|-0-0-5-3-0-------5-3-0-0-5-3-0-------5-3-0-0-5-3-0-------5-3-0-0-5-3-0-------5--|


   and either way      your way to         close to it all
                                                        you cannot veto the world
|--------------------------------------------------------------------------------|
|--------------------------------------------------------------------------------|
|--------------------------------------------------------------------------------|
|-----------------5-3-----------------5-3-----------------5-3--------------------|
|-----------5-3-0-5-3-----------5-3-0-5-3-----------5-3-0-5-3-----------5-3-0----|
|-0-0-5-3-0-------5-3-0-0-5-3-0-------5-3-0-0-5-3-0-------5-3-0-0-5-3-0-------5b-|
|
|--------------------------------------------------------------------------------|
|--------------------------------------------------------------------------------|
|-----------5-3-0---------------5-3-0---------------5-3-0---------------5-3-0----|
|-0-0-5-3-0-------5-3-0-0-5-3-0-------5-3-0-0-5-3-0-------5-3-0-0-5-3-0-------5--|



  like your face        getting forced     to the floor
                                                       in a league of your own
|--------------------------------------------------------------------------------|
|--------------------------------------------------------------------------------|
|--------------------------------------------------------------------------------|
|-----------------5-3-----------------5-3-----------------5-3--------------------|
|-----------5-3-0-5-3-----------5-3-0-5-3-----------5-3-0-5-3-----------5-3-0----|
|-0-0-5-3-0-------5-3-0-0-5-3-0-------5-3-0-0-5-3-0-------5-3-0-0-5-3-0-------5b-|
|
|--------------------------------------------------------------------------------|
|--------------------------------------------------------------------------------|
|-----------5-3-0---------------5-3-0---------------5-3-0---------------5-3-0----|
|-0-0-5-3-0-------5-3-0-0-5-3-0-------5-3-0-0-5-3-0-------5-3-0-0-5-3-0-------5--|


   and either way      your way to         close to it all     to close to it all

|-------------------------------------------------------------------------------------|
|-------------------------------------------------------------------------------------|
|-------------------------------------------------------------------------------------|
|-----------------5-3-----------------5-3-----------------5-3---------------------3-0-|
|-----------5-3-0-5-3-----------5-3-0-5-3-----------5-3-0-5-3-----------5-3-0-----3-0-|
|-0-0-5-3-0-------5-3-0-0-5-3-0-------5-3-0-0-5-3-0-------5-3-0-0-5-3-0-------5tb-3-0-|
|
|-------------------------------------------------------------------------------------|
|-------------------------------------------------------------------------------------|
|-----------5-3-0---------------5-3-0---------------5-3-0---------------5-3-0---------|
|-0-0-5-3-0-------5-3-0-0-5-3-0-------5-3-0-0-5-3-0-------5-3-0-0-5-3-0-------5---3-0-|




2. Same Old Trip  (drop c)


intro

these aren't quite tremelo picking but
its easier than writing 700 notes.
-
|-15t--14t-12t------------14t------------12-----------------------|
|-12t--12t-12t------------12t-------------------------------------|
|-----------------------------------------------------------------|
|-----------------------------------------------------------------|
|-----------------------------------------------------------------|
|-----------------------------------------------------------------|
|
|-----------------------------------------------------------------|
|-----------------------------------------------------------------|
|-----------------------------------------------------------------|
|----------5-5-5-5-5-5-5-5-7-7-7-7-7-7-7-7------------------------|
|----------3-3-3-3-3-3-3-3-5-5-5-5-5-5-5-5------------------------|
|-----------------------------------------------------------------|


verse

|------------------------------------------------------------------|
|------------------------------------------------------------------|
|------------------------------------------------------------------|
|------------------------------------------------------------------|
|---------3--------------1-----------------------------------------|
|-2-2-0-2---2-0--2-2-0-2---2-0-------------------------------------|

|-------------------------------------------------------------------------------------------|
|-------------------------------------------------------------------------------------------|
|-------------------------------------------------------------------------------------------|
|-------------------------------------------------------------------------------------------|
|-2-2---2-3-2----2-2---2-1-2----2-2---2-3-2----2-2---2-1-2----2-2---2-3-2----2-2---2-1-2----|
|-2-2-0-2---2-0--2-2-0-2---2-0--2-2-0-2---2-0--2-2-0-2---2-0--2-2-0-2---2-0--2-2-0-2---2-0--|

|-------------------------------------------------------------------------------------------|
|-------------------------------------------------------------------------------------------|
|-------------------------------------------------------------------------------------------|
|-------------------------------------------------------------------------------------------|
|-2-2---2-3-2----2-2---2-1-2----2-2---2-3-2----2-2---2-1-2----2-2---2-3-2----2-2---2-1-2----|
|-2-2-0-2---2-0--2-2-0-2---2-0--2-2-0-2---2-0--2-2-0-2---2-0--2-2-0-2---2-0--2-2-0-2---2-0--|


---------------------------------------------------------------------------|
---------------------------------------------------------------------------|
---------------------------------------------------------------------------|
---------------------------------------------------------------------------|
-2-2---2-3-2----2-2---2-1-2------------------------------------------------|
-2-2-0-2---2-0--2-2-0-2---2-0----------------------------------------------|

chorus

---------------------------------------------------------------------------|
---------------------------------------------------------------------------|
---------------------------------------------------------------------------|
-5-5-5-5-5-5-5-5-7-7-7-7-7-7-7-7-9-9-9-9-9-9-9-9-12-12-12-12-12-12-12-12---|
-3-3-3-3-3-3-3-3-5-5-5-5-5-5-5-5-7-7-7-7-7-7-7-7-10-10-10-10-10-10-10-10---|
---------------------------------------------------------------------------|


---------------------------------------------------------------------------|
---------------------------------------------------------------------------|
---------------------------------------------------------------------------|
-5-5-5-5-5-5-5-5-7-7-7-7-7-7-7-7-------------------------------------------|
-3-3-3-3-3-3-3-3-5-5-5-5-5-5-5-5-------------------------------------------|
---------------------------------------------------------------------------|

pre verse



|-12-------------------------------10--------------------------------|
|--------------------------------------------------------------------|
|--------------------------------------------------------------------|
|--------------------------------------------------------------------|
|--------------------------------------------------------------------|
|--------------------------------------------------------------------|
|
|--------------------------------------------------------------------|
|--------------------------------------------------------------------|
|--------------------------------------------------------------------|
|--------------------------------------------------------------------|
|----------3--------------1---------------3--------------1-----------|
|--2-2-0-2---2-0--2-2-0-2---2-0---2-2-0-2---2-0--2-2-0-2---2-0-------|

vere 2

(now here it sounds more like two guitars playing this than one playing an octave)
(but it works either way so you make the choice)



|-12t--------b---------------------12t-----------b-----------------|
|------------------------------------------------------------------|
|-9t---------b---------------------9t------------b-----------------|
|------------------------------------------------------------------|
|------------------------------------------------------------------|
|------------------------------------------------------------------|
|
|------------------------------------------------------------------|
|------------------------------------------------------------------|
|------------------------------------------------------------------|
|------------------------------------------------------------------|
|-2-2-0-2--------------------------2-2-0-2-------------------3-----|
|-2-2-0-2--------------------------2-2-0-2---------------0-2-------|


|-12t---------b--------------------12t----------b------------------|
|------------------------------------------------------------------|
|--9t---------b--------------------9t-----------b------------------|
|------------------------------------------------------------------|
|------------------------------------------------------------------|
|------------------------------------------------------------------|
|
|------------------------------------------------------------------|
|------------------------------------------------------------------|
|------------------------------------------------------------------|
|------------------------------------------------------------------|
|-2-2-0-2---------------------3----2-2-0-2-------------------3-----|
|-2-2-0-2-----------------0-2------2-2-0-2---------------0-2-------|


pre chorus

(the 12 is very quiet into the left speaker here)

|-12t--------------------------------------------------------------------------|
|------------------------------------------------------------------------------|
|------------------------------------------------------------------------------|
|------------------------------------------------------------------------------|
|------------------------------------------------------------------------------|
|------------------------------------------------------------------------------|
|
|------------------------------------------------------------------------------|
|------------------------------------------------------------------------------|
|------------------------------------------------------------------------------|
|-------------------------------------------------------------x-x-x-x-x-x-x-x--|
|-2-2-0-2-3-2-0-2-2-0-2-----------------2-2-0-2-3-2-0-2-2-0-2-x-x-x-x-x-x-x-x--|
|-2-2-0-2---2-0-2-2-0-2-----------------2-2-0-2---2-0-2-2-0-2-x-x-x-x-x-x-x-x--|
|

chorus

-------------------------------------------------------------------------|
-------------------------------------------------------------------------|
-------------------------------------------------------------------------|
-5-5-5-5-5-5-5-5-7-7-7-7-7-7-7-7-9-9-9-9-9-9-9-9-12-12-12-12-12-12-12-12-|
-3-3-3-3-3-3-3-3-5-5-5-5-5-5-5-5-7-7-7-7-7-7-7-7-10-10-10-10-10-10-10-10-|
-------------------------------------------------------------------------|

-------------------------------------------------------------------------|
-------------------------------------------------------------------------|
-------------------------------------------------------------------------|
-5-5-5-5-5-5-5-5-7-7-7-7-7-7-7-7-9-9-9-9-9-9-9-9-12-12-12-12-12-12-12-12-|
-3-3-3-3-3-3-3-3-5-5-5-5-5-5-5-5-7-7-7-7-7-7-7-7-10-10-10-10-10-10-10-10-|
-------------------------------------------------------------------------|

-------------------------------------------------------------------------|
-------------------------------------------------------------------------|
-------------------------------------------------------------------------|
-5-5-5-5-5-5-5-5-7-7-7-7-7-7-7-7-----------------------------------------|
-3-3-3-3-3-3-3-3-5-5-5-5-5-5-5-5-----------------------------------------|
-------------------------------------------------------------------------|

interlude
(again guitar 1 on here is actually 2 guitars)

|-12t-------------b---------------------------------------------------------------------------|
|------------------------------12t----------------------13t-12t-------------------------------|
|---------------------------------------------------------------------------------------------|
|-14t-------------b---------------------------------------------------------------------------|
|------------------------------14t----------------------15t-14t-------------------------------|
|---------------------------------------------------------------------------------------------|
|
|---------------------------------------------------------------------------------------------|
|------------------------------------------------------------0--------------------------------|
|--------------------0-------0----------------------0-----------------------------------------|
|-----------------4-------4-----------------------4--------4----------------------------------|
|-2-2-0-2-0-2-0-2------2-------2-2-0-2-0-2-0---2-------2--------------------------------------|
|-2-2-0-2-0-2-0----------------2-2-0-2-0-2-0--------------------------------------------------|



|-15t-------------------------14t-----------------------------12-----------------------------|
|--------------------------------------------------------------------------------------------|
|--------------------------------------------------------------------------------------------|
|-17t-------------------------16t-----------------------------14-----------------------------|
|--------------------------------------------------------------------------------------------|
|--------------------------------------------------------------------------------------------|
|
|--------------------------------------------------------------------------------------------|
|------------------------------------------------------------0-------------------------------|
|--------------------0-------0----------------------0----------------------------------------|
|-----------------4-------4-----------------------4--------4---------------------------------|
|-2-2-0-2-0-2-0-2------2-------2-2-0-2-0-2-0---2-------2-------------------------------------|
|-2-2-0-2-0-2-0----------------2-2-0-2-0-2-0-------------------------------------------------|




prechorus 2

|-12----------bt---------12-------bt--------------12t---------b--------12t-----b-------------|
|--------------------------------------------------------------------------------------------|
|--------------------------------------------------------------------------------------------|
|-14----------bt---------14-------bt--------------14t---------b--------14t-----b-------------|
|--------------------------------------------------------------------------------------------|
|--------------------------------------------------------------------------------------------|
|
|--------------------------------------------------------------------------------------------|
|--------------------------------------------------------------------------------------------|
|--------------------------------------------------------------------------------------------|
|--------------------------------------------------------------------------------------------|
|-2-2-0-2-3-2-0-2-2-0-2--2-2-0-2-3-2-0-2-2-0-2--2-2-0-2-3-2-0-2-2-0-2--2-2-0-2-3-2-0-2-2-0-2-|
|-2-2-0-2---2-0-2-2-0-2--2-2-0-2---2-0-2-2-0-2--2-2-0-2---2-0-2-2-0-2--2-2-0-2---2-0-2-2-0-2-|


chorus

(the top guitar is really hard to hear but once)
(ya hear it it annoys the hell outta ya.)

|-------------------------------------------------15-15-15-15-15-15-15-15-|
|-12(x24)-----------------------------------------12-12-12-12-12-12-12-12-|
|-------------------------------------------------------------------------|
|-------------------------------------------------------------------------|
|-------------------------------------------------------------------------|
|-------------------------------------------------------------------------|
|
|-------------------------------------------------------------------------|
|-------------------------------------------------------------------------|
|-------------------------------------------------------------------------|
|-5-5-5-5-5-5-5-5-7-7-7-7-7-7-7-7-9-9-9-9-9-9-9-9-12-12-12-12-12-12-12-12-|
|-3-3-3-3-3-3-3-3-5-5-5-5-5-5-5-5-7-7-7-7-7-7-7-7-10-10-10-10-10-10-10-10-|
|-------------------------------------------------------------------------|


|-------------------------------------------------15-15-15-15-15-15-15-15-|
|-12(x24)-----------------------------------------12-12-12-12-12-12-12-12-|
|-------------------------------------------------------------------------|
|-------------------------------------------------------------------------|
|-------------------------------------------------------------------------|
|-------------------------------------------------------------------------|
|
|-------------------------------------------------------------------------|
|-------------------------------------------------------------------------|
|-------------------------------------------------------------------------|
|-5-5-5-5-5-5-5-5-7-7-7-7-7-7-7-7-9-9-9-9-9-9-9-9-12-12-12-12-12-12-12-12-|
|-3-3-3-3-3-3-3-3-5-5-5-5-5-5-5-5-7-7-7-7-7-7-7-7-10-10-10-10-10-10-10-10-|
|-------------------------------------------------------------------------|


|-------------------------------------------------15-15-15-15-15-15-15-15-|
|-12(x24)-----------------------------------------12-12-12-12-12-12-12-12-|
|-------------------------------------------------------------------------|
|-------------------------------------------------------------------------|
|-------------------------------------------------------------------------|
|-------------------------------------------------------------------------|
|
|-------------------------------------------------------------------------|
|-------------------------------------------------------------------------|
|-------------------------------------------------------------------------|
|-5-5-5-5-5-5-5-5-7-7-7-7-7-7-7-7-9-9-9-9-9-9-9-9-12-12-12-12-12-12-12-12-|
|-3-3-3-3-3-3-3-3-5-5-5-5-5-5-5-5-7-7-7-7-7-7-7-7-10-10-10-10-10-10-10-10-|
|-------------------------------------------------------------------------|

|-------------------------------------------------------------------|
|-12(x24)-----------------------------------------------------------|
|-------------------------------------------------------------------|
|-------------------------------------------------------------------|
|-------------------------------------------------------------------|
|-------------------------------------------------------------------|
|
|-------------------------------------------------------------------|
|-------------------------------------------------------------------|
|-------------------------------------------------------------------|
|-5-5-5-5-5-5-5-5-7-7-7-7-7-7-7-7-----------------------------------|
|-3-3-3-3-3-3-3-3-5-5-5-5-5-5-5-5-----------------------------------|
|-------------------------------------------------------------------|

outro


|----------|
|----------|
|-9t-------|
|-----2----|
|-7t--2----|
|-----2----|




also before someone starts a flame war in the comments the chorus can also be played
with the following

|----------------|
|----------------|
|----------------|
|-10-12-14-17----|
|-10-12-14-17----|
|-10-12-14-17----|




3. Ruse  (drop c)


intro

|-------------------------------------------------------------------------------------|
|-------------------------------------------------------------------------------------|
|-------------------------------------------------------------------------------------|
|-7h8p7--------7h8p7------7h8p8-------------7h8p7--------7h8p7------7h8p8-------------|
|--------5--5---------5-5-------5-5-5-5-5---------5--5---------5-5-------5-5-5-5-5\---|
|-------------------------------------------------------------------------------------|


|------------------------------------------------------------------------------------------|
|---5---5p3---5---5p1---5---5p2---5------------5---5p3---5---5p1---5---5p2---5-------------|
|---2---2-----2---2-----2---2-----2------------2---2-----2---2-----2---2-----2-------------|
|-0-0-0-0---0-0-0-0---0-0-0-0---0-0-0-10-8-7-0-0-0-0---0-0-0-0---0-0-0-0---0-0-0-7-8-10----|
|-0-0-0-0---0-0-0-0---0-0-0-0---0-0-0-10-8-7-0-0-0-0---0-0-0-0---0-0-0-0---0-0-0-7-8-10----|
|-0-0-0-0---0-0-0-0---0-0-0-0---0-0-0-10-8-7-0-0-0-0---0-0-0-0---0-0-0-0---0-0-0-7-8-10----|

verse


|-1--1--1--1----------------------------------------------------|
|-3--3--3--3----------------------------------------------------|
|-2--2--2--2----------------------------------------------------|
|-0--0--0--0----------------------------------------------------|
|-0--0--0--0----------------------------------------------------|
|-0-------------------------------------------------------------|

|-------------------------------------------------------------------------------------|
|-------------------------------------------------------------------------------------|
|-------------------------------------------------------------------------------------|
|-7h8p7--------7h8p7------7h8p8-------------7h8p7--------7h8p7------7h8p8-------------|
|--------5--5---------5-5-------5-5-5-5-5---------5--5---------5-5-------5-5-5-5-5\---|
|-------------------------------------------------------------------------------------|

|-1--1--1--1--------------------------------------------------------|
|-3--3--3--3--------------------------------------------------------|
|-2--2--2--2---xxxx-------------------------------------------------|
|-0--0--0--0---xxxx-------------------------------------------------|
|-0--0--0--0---xxxx-------------------------------------------------|
|-0------------xxxx-------------------------------------------------|


chorus

|-------------------------------------------------------------------------|
|-----3-3-----------------------------------------------------------------|
|-----2-2-------5-5---------12-12--------10-10----------------------------|
|-0-0-0-0-0-3-3-3-3-3-10-10-10-10-10-8-8-8--8--8--------------------------|
|-0-0-0-0-0-3-3-3-3-3-10-10-10-10-10-8-8-8--8--8--------------------------|
|-0-------0-3-----3-3-10-------10-10-8------8--8--------------------------|


|----------------------------------------------------------------------------|
|----------------------------------------------------------------------------|
|-/14-14-14-14-14-14-14-14-14-14-14-14-/17-17-17-17-17-17-17-17-17-17-17-17--|
|----------------------------------------------------------------------------|
|-/12-12-12-12-12-12-12-12-12-12-12-12-/15-15-15-15-15-15-15-15-15-15-15-15--|
|----------------------------------------------------------------------------|


|-----------------------------------------------------------------------|
|-----------------------------------------------------------------------|
|-12-12-12-12-12-12-12-12-12-12-12-12-10-10-10-10-10-10-10-10-10-10-9-9-|
|-----------------------------------------------------------------------|
|-10-10-10-10-10-10-10-10-10-10-10-10-8--8--8--8--8--8--8--8--8--8--7-7-|
|-----------------------------------------------------------------------|

preverse

|------------------------------------------------------------------------------------------|
|---5---5p3---5---5p1---5---5p2---5------------5---5p3---5---5p1---5---5p2---5-------------|
|---2---2-----2---2-----2---2-----2------------2---2-----2---2-----2---2-----2-------------|
|-0-0-0-0---0-0-0-0---0-0-0-0---0-0-0-10-8-7-0-0-0-0---0-0-0-0---0-0-0-0---0-0-0-7-8-10----|
|-0-0-0-0---0-0-0-0---0-0-0-0---0-0-0-10-8-7-0-0-0-0---0-0-0-0---0-0-0-0---0-0-0-7-8-10----|
|-0-0-0-0---0-0-0-0---0-0-0-0---0-0-0-10-8-7-0-0-0-0---0-0-0-0---0-0-0-0---0-0-0-7-8-10----|



|-----------------------------------------------|
|-----------------------------------------------|
|-----------------------------------------------|
|---7h8p7----------7h8p7------7h8p7-------------|
|-----------5--5---------5-5-------5-5-5-5-5\---|
|-----------------------------------------------|


verse


|-1--1--1--1-------------------------------------1--1--1--1--------------------------------------|
|-3--3--3--3-------------------------------------3--3--3--3--------------------------------------|
|-2--2--2--2-------------------------------------2--2--2--2--------------------------------------|
|-0--0--0--0--10--10-10-10-10-10-8-7-5-5-5-5-5-5-0--0--0--0--------------------------------------|
|-0--0--0--0--10--10-10-10-10-10-8-7-5-5-5-5-5-5-0--0--0--0--------------------------------------|
|-0-----------10--10-10-10-10-10-8-7-5-5-5-5-5-5-0--0--0--0-10--10-10-10-10-10-8-7-5-5-5-5-5-5-0-|




|----------------------------------|
|----------------------------------|
|----------------------------xxxx--|
|----------------------------xxxx--|
|----------------------------xxxx--|
|-10--10-10-10-10-10-8-7-5---xxxx--|


chorus

|-------------------------------------------------------------------------|
|-----3-3-----------------------------------------------------------------|
|-----2-2-------5-5---------12-12--------10-10----------------------------|
|-0-0-0-0-0-3-3-3-3-3-10-10-10-10-10-8-8-8--8--8--------------------------|
|-0-0-0-0-0-3-3-3-3-3-10-10-10-10-10-8-8-8--8--8--------------------------|
|-0-------0-3-----3-3-10-------10-10-8------8--8--------------------------|


|----------------------------------------------------------------------------|
|----------------------------------------------------------------------------|
|-/14-14-14-14-14-14-14-14-14-14-14-14-/17-17-17-17-17-17-17-17-17-17-17-17--|
|----------------------------------------------------------------------------|
|-/12-12-12-12-12-12-12-12-12-12-12-12-/15-15-15-15-15-15-15-15-15-15-15-15--|
|----------------------------------------------------------------------------|


|-----------------------------------------------------------------------|
|-----------------------------------------------------------------------|
|-12-12-12-12-12-12-12-12-12-12-12-12-10-10-10-10-10-10-10-10-10-10-9-9-|
|-----------------------------------------------------------------------|
|-10-10-10-10-10-10-10-10-10-10-10-10-8--8--8--8--8--8--8--8--8--8--7-7-|
|-----------------------------------------------------------------------|

|-------------------------------------------------------------------------|
|-------------------------------------------------------------------------|
|-12-12-12-12-12-12-12-12-12-12-12-12-14-14-14-14-14-14-14-14-14-14-14-14-|
|-12-12-12-12-12-12-12-12-12-12-12-12-14-14-14-14-14-14-14-14-14-14-14-14-|
|-10-10-10-10-10-10-10-10-10-10-10-10-12-12-12-12-12-12-12-12-12-12-12-12-|
|-------------------------------------------------------------------------|

|-------------------------------------------------------------------------|
|-----3-3-----------------------------------------------------------------|
|-----2-2-------5-5---------12-12--------10-10----------------------------|
|-0-0-0-0-0-3-3-3-3-3-10-10-10-10-10-8-8-8--8--8--------------------------|
|-0-0-0-0-0-3-3-3-3-3-10-10-10-10-10-8-8-8--8--8--------------------------|
|-0-------0-3-----3-3-10-------10-10-8------8--8--------------------------|


|----------------------------------------------------------------------------|
|----------------------------------------------------------------------------|
|-/14-14-14-14-14-14-14-14-14-14-14-14-/17-17-17-17-17-17-17-17-17-17-17-17--|
|----------------------------------------------------------------------------|
|-/12-12-12-12-12-12-12-12-12-12-12-12-/15-15-15-15-15-15-15-15-15-15-15-15--|
|----------------------------------------------------------------------------|


|-----------------------------------------------------------------------|
|-----------------------------------------------------------------------|
|-12-12-12-12-12-12-12-12-12-12-12-12-10-10-10-10-10-10-10-10-10-10-9-9-|
|-----------------------------------------------------------------------|
|-10-10-10-10-10-10-10-10-10-10-10-10-8--8--8--8--8--8--8--8--8--8--7-7-|
|-----------------------------------------------------------------------|

pre-solo

|-------------------------------------------------------------------------|
|-------------------------------------------------------------------------|
|-10-10-10-10-9-9-9-9-9-9-9-9-9-9-9-9-10-10-10-10-10-10-10-10-10-10-10-10-|
|-8--8--8--8--9-9-9-9-9-9-9-9-9-9-9-9-10-10-10-10-10-10-10-10-10-10-10-10-|
|-8--8--8--8--7-7-7-7-7-7-7-7-7-7-7-7-8--8--8--8--8--8--8--8--8--8--8--8--|
|-------------------------------------------------------------------------|

|-------------------------------------------------------------------------|
|-------------------------------------------------------------------------|
|-12-12-12-12-12-12-12-12-12-12-12-12-14-14-14-14-14-14-14-14-14-14-14-14-|
|-12-12-12-12-12-12-12-12-12-12-12-12-14-14-14-14-14-14-14-14-14-14-14-14-|
|-10-10-10-10-10-10-10-10-10-10-10-10-12-12-12-12-12-12-12-12-12-12-12-12-|
|-------------------------------------------------------------------------|


|--------------------------------------------------------|
|--------------------------------------------------------|
|-10-10-10-10-9-9-9-9-9-9-9-9-9-9-9-9--------------------|
|-8--8--8--8--9-9-9-9-9-9-9-9-9-9-9-9-15-14-12-15-14-12--|
|-8--8--8--8--7-7-7-7-7-7-7-7-7-7-7-7-0--0--0--0--0--0---|
|-------------------------------------0--0--0--0--0--0---|


"solo"
|--------------------------------------------------------------|
|--------------------------------------------------------18----|
|--17----17----17----17-----17\19-19-19---------17----17----17-|
|-----17----17----17----17--17\19-19-19-17b-12-----17----------|
|--------------------------------------------------------------|
|--------------------------------------------------------------|


|--------------------|
|--------------------|
|-17\19-19-19----19t-|
|-------------19-19t-|
|--------------------|
|--------------------|

chorus

|-------------------------------------------------------------------------|
|-----3-3-----------------------------------------------------------------|
|-----2-2-------5-5---------12-12--------10-10----------------------------|
|-0-0-0-0-0-3-3-3-3-3-10-10-10-10-10-8-8-8--8--8--------------------------|
|-0-0-0-0-0-3-3-3-3-3-10-10-10-10-10-8-8-8--8--8--------------------------|
|-0-------0-3-----3-3-10-------10-10-8------8--8--------------------------|


|---------------------------------------------------------------------------|
|---------------------------------------------------------------------------|
|-/14-14-14-14-14-14-14-14-14-14-14-14-/17-17-17-17-17-17-17-17-17-17-17-17-|
|---------------------------------------------------------------------------|
|-/12-12-12-12-12-12-12-12-12-12-12-12-/15-15-15-15-15-15-15-15-15-15-15-15-|
|---------------------------------------------------------------------------|


|-----------------------------------------------------------------------|
|-----------------------------------------------------------------------|
|-12-12-12-12-12-12-12-12-12-12-12-12-10-10-10-10-10-10-10-10-10-10-9-9-|
|-----------------------------------------------------------------------|
|-10-10-10-10-10-10-10-10-10-10-10-10-8--8--8--8--8--8--8--8--8--8--7-7-|
|-----------------------------------------------------------------------|

|-------------------------------------------------------------------------|
|-----3-3-----------------------------------------------------------------|
|-----2-2-------5-5---------12-12--------10-10----------------------------|
|-0-0-0-0-0-3-3-3-3-3-10-10-10-10-10-8-8-8--8--8--------------------------|
|-0-0-0-0-0-3-3-3-3-3-10-10-10-10-10-8-8-8--8--8--------------------------|
|-0-------0-3-----3-3-10-------10-10-8------8--8--------------------------|


|---------------------------------------------------------------------------|
|---------------------------------------------------------------------------|
|-/14-14-14-14-14-14-14-14-14-14-14-14-/17-17-17-17-17-17-17-17-17-17-17-17-|
|---------------------------------------------------------------------------|
|-/12-12-12-12-12-12-12-12-12-12-12-12-/15-15-15-15-15-15-15-15-15-15-15-15-|
|---------------------------------------------------------------------------|


|-----------------------------------------------------------------------|
|-----------------------------------------------------------------------|
|-12-12-12-12-12-12-12-12-12-12-12-12-10-10-10-10-10-10-10-10-10-10-9-9-|
|-----------------------------------------------------------------------|
|-10-10-10-10-10-10-10-10-10-10-10-10-8--8--8--8--8--8--8--8--8--8--7-7-|
|-----------------------------------------------------------------------|

outro

|-------------------------------------------------------------------------------------------|
|---5---5p3---5---5p1---5---5p2---5-------------5---5p3---5---5p1---5---5p2---5-------------|
|---2---2-----2---2-----2---2-----2-------------2---2-----2---2-----2---2-----2-------------|
|-0-0-0-0---0-0-0-0---0-0-0-0---0-0-0-10-8-10-0-0-0-0---0-0-0-0---0-0-0-0---0-0-0-8-5-7-3-0-|
|-0-0-0-0---0-0-0-0---0-0-0-0---0-0-0-10-8-10-0-0-0-0---0-0-0-0---0-0-0-0---0-0-0-8-5-7-3-0-|
|-0-0-0-0---0-0-0-0---0-0-0-0---0-0-0-10-8-10-0-0-0-0---0-0-0-0---0-0-0-0---0-0-0-8-5-7-3-0-|

then a crapload of random feedback




4. The Meddler (drop b)


verse

|--------|
|-10--8--|
|-9---9--|
|-7---7--|
|--------|
|--------|

chorus 1

|----------------------------------------------------------|
|----------------------------------------------------------|
|----------------------------------------------------------|
|-7--7-7--7-7-7--7--7-7--7-7-7-10--10-10--10-10-10---------|
|-7--7-7--7-7-7--7--7-7--7-7-7-10--10-10--10-10-10---------|
|-7--7-7--7-7-7--7--7-7--7-7-7-10--10-10--10-10-10---------|


|----------------------------------------------------------|
|----------------------------------------------------------|
|----------------------------------------------------------|
|-12--12-12--12-12-12--------------------------------------|
|-12--12-12--12-12-12--------------------------------------|
|-12--12-12--12-12-12--------------------------------------|

preverse


|----------------------------------------------------------|
|----------------------------------------------------------|
|-14-9-----------14-9--------------------------------------|
|------13t-12-10------13t-12-10-7--------------------------|
|----------------------------------------------------------|
|----------------------------------------------------------|

chorus 2

|----------------------------------------------------------------|
|----------------------------------------------------------------|
|------------------------------16-16-16-16-14-12-12-9-9-9--7-7-7-|
|----------------------------------------------------------------|
|------------------------------14-14-14-14-12-10-10-7-7-7--5-5-5-|
|----------------------------------------------------------------|
|
|----------------------------------------------------------------|
|----------------------------------------------------------------|
|----------------------------------------------------------------|
|-7--7-7--7-7-7--7--7-7--7-7-7-10--10-10--10-10-10-5--5-5--5-5-5-|
|-7--7-7--7-7-7--7--7-7--7-7-7-10--10-10--10-10-10-5--5-5--5-5-5-|
|-7--7-7--7-7-7--7--7-7--7-7-7-10--10-10--10-10-10-5--5-5--5-5-5-|


|----------------------------------------------------------------|
|----------------------------------------------------------------|
|------------------------------16-16-16-16-14-12-12-9-9-9--7-7-7-|
|----------------------------------------------------------------|
|------------------------------14-14-14-14-12-10-10-7-7-7--5-5-5-|
|----------------------------------------------------------------|
|
|----------------------------------------------------------------|
|----------------------------------------------------------------|
|----------------------------------------------------------------|
|-7--7-7--7-7-7--7--7-7--7-7-7-10--10-10--10-10-10-5--5-5--5-5-5-|
|-7--7-7--7-7-7--7--7-7--7-7-7-10--10-10--10-10-10-5--5-5--5-5-5-|
|-7--7-7--7-7-7--7--7-7--7-7-7-10--10-10--10-10-10-5--5-5--5-5-5-|

interlude


|---------------------------------------------------------|
|---------------------------------------------------------|
|---------------------------------------------------------|
|-2-2-4-5--4-5--4-5---4-5-5-5-4-5-5-5-4-5-5-5-4-5-5-5-4-5-|
|-2-2---------------------5-5-----5-5-----5-5-----5-5-----|
|-2-2---------------------5-5-----5-5-----5-5-----5-5-----|


|---------------------------------------------------------------------|
|---------------------------------------------------------------------|
|---------------------------------------------------------------------|
|-7-7-9-10-7-7-9-10-7-7-9-10-7-7-9-10-5-5-7-9-5-5-7-9-5-5-7-9-5-5-/\--|
|-7-7------7-7------7-7------7-7------5-5-----5-5-----5-5-----5-5-/\--|
|-7-7------7-7------7-7------7-7------5-5-----5-5-----5-5-----5-5-/\--|


|-----------------------------------------------------------------|
|-----------------------------------------------------------------|
|-----------------------------------------------------------------|
|-2-2-4-5-2-2-4-5-2-2-4-5-2-2-4-5-5-5-4-5-5-5-4-5-5-5-4-5-5-5-4-5-|
|-2-2-----2-2-----2-2-----2-2-----5-5-----5-5-----5-5-----5-5-----|
|-2-2-----2-2-----2-2-----2-2-----5-5-----5-5-----5-5-----5-5-----|



|----------------------------------------------------------------------|
|----------------------------------------------------------------19-15-|
|----------------------------------------------------------------------|
|----------------------------------------------------------------------|
|----------------------------------------------------------------------|
|----------------------------------------------------------------------|
|
|----------------------------------------------------------------------|
|----------------------------------------------------------------------|
|----------------------------------------------------------------------|
|-7-7-9-10-7-7-9-10-7-7-9-10-7-7-9-10-5-5-7-9-5-5-7-9-5-5-7-9-5-5-10-5-|
|-7-7------7-7------7-7------7-7------5-5-----5-5-----5-5-----5-5-10-5-|
|-7-7------7-7------7-7------7-7------5-5-----5-5-----5-5-----5-5-10-5-|

chorus (right notes probably wrong amount of times on the top guitar)

|-----------------------------------------------------------------|
|-----------------------------------------------------------------|
|-16-16-16-16-16-16-16-17-17-16-16-16-16-16-14-12-12-9-9-9--7-7-7-|
|-----------------------------------------------------------------|
|-14-14-14-14-14-14-14-15-15-14-14-14-14-14-12-10-10-7-7-7--5-5-5-|
|-----------------------------------------------------------------|
|
|----------------------------------------------------------------|
|----------------------------------------------------------------|
|----------------------------------------------------------------|
|-7--7-7--7-7-7--7--7-7--7-7-7-10--10-10--10-10-10-5--5-5--5-5-5-|
|-7--7-7--7-7-7--7--7-7--7-7-7-10--10-10--10-10-10-5--5-5--5-5-5-|
|-7--7-7--7-7-7--7--7-7--7-7-7-10--10-10--10-10-10-5--5-5--5-5-5-|


|-----------------------------------------------------------------|
|-----------------------------------------------------------------|
|-16-16-16-16-16-16-16-17-17-16-16-16-16-16-14-12-12-9-9-9--7-7-7-|
|-----------------------------------------------------------------|
|-14-14-14-14-14-14-14-15-15-14-14-14-14-14-12-10-10-7-7-7--5-5-5-|
|-----------------------------------------------------------------|
|
|----------------------------------------------------------------|
|----------------------------------------------------------------|
|----------------------------------------------------------------|
|-7--7-7--7-7-7--7--7-7--7-7-7-10--10-10--10-10-10-5--5-5--5-5-5-|
|-7--7-7--7-7-7--7--7-7--7-7-7-10--10-10--10-10-10-5--5-5--5-5-5-|
|-7--7-7--7-7-7--7--7-7--7-7-7-10--10-10--10-10-10-5--5-5--5-5-5-|


|-----------------------------------------------------------------|
|-----------------------------------------------------------------|
|-16-16-16-16-16--16--16--17--17--16--16--16--16--16--14--12--12--|
|-----------------------------------------------------------------|
|-14-14-14-14-14--14--14--15--15--14--14--14--14--14--12--10--10--|
|-----------------------------------------------------------------|
|
|------------------------------------------------------------------|
|------------------------------------------------------------------|
|------------------------------------------------------------------|
|-7-7-7-7-7-7-7-7-7-7-7-7-7-7-3-3-10-10-10-10-10-10-10-10-10-10-10-|
|-7-7-7-7-7-7-7-7-7-7-7-7-7-7-3-3-10-10-10-10-10-10-10-10-10-10-10-|
|-7-7-7-7-7-7-7-7-7-7-7-7-7-7-3-3-10-10-10-10-10-10-10-10-10-10-10-|




|--------------------------------|
|--------------------------------|
|-9--9---9---7---7----7----------|
|--------------------------------|
|-7---7--7---5---5----5----------|
|--------------------------------|
|
|--------------------------------|
|--------------------------------|
|--------------------------------|
|-5-5-5-5-5-5-5-5-5-5-5-5-10-9---|
|-5-5-5-5-5-5-5-5-5-5-5-5-10-9---|
|-5-5-5-5-5-5-5-5-5-5-5-5-10-9---|


|-----------------------------------------------------------------|
|-----------------------------------------------------------------|
|-16-16-16-16-16--16--16--17--17--16--16--16--16--16--14--12--12--|
|-----------------------------------------------------------------|
|-14-14-14-14-14--14--14--15--15--14--14--14--14--14--12--10--10--|
|-----------------------------------------------------------------|
|
|------------------------------------------------------------------|
|------------------------------------------------------------------|
|------------------------------------------------------------------|
|-7-7-7-7-7-7-7-7-7-7-7-7-7-7-3-3-10-10-10-10-10-10-10-10-10-10-10-|
|-7-7-7-7-7-7-7-7-7-7-7-7-7-7-3-3-10-10-10-10-10-10-10-10-10-10-10-|
|-7-7-7-7-7-7-7-7-7-7-7-7-7-7-3-3-10-10-10-10-10-10-10-10-10-10-10-|




|--------------------------------|
|--------------------------------|
|-9--9---9---7---7----7----------|
|--------------------------------|
|-7---7--7---5---5----5----------|
|--------------------------------|
|
|--------------------------------|
|--------------------------------|
|--------------------------------|
|-5-5-5-5-5-5-5-5-5-5-5-5-10-9---|
|-5-5-5-5-5-5-5-5-5-5-5-5-10-9---|
|-5-5-5-5-5-5-5-5-5-5-5-5-10-9---|


|-----------------------------------------------------------------|
|-----------------------------------------------------------------|
|-14-9-12-------14-9-12-------14-9-12-------14-9-12---------------|
|---------12-14---------12-14---------12-14---------12-14----5-7--|
|---------------------------------------------------------------0-|
|-----------------------------------------------------------------|
|
|-------------------------------------------------------------|
|-------------------------------------------------------------|
|-------------------------------------------------------------|
|-7--7-7--7-7-7--7--7-7--7-7-7--7--7-7--7-7-7---7--7-7--7-7-7-|
|-7--7-7--7-7-7--7--7-7--7-7-7--7--7-7--7-7-7---7--7-7--7-7-7-|
|-7--7-7--7-7-7--7--7-7--7-7-7--7--7-7--7-7-7---7--7-7--7-7-7-|


5.Pinata (drop c)


intro

|--------------------------------------------------------------
|--------------------------------------------------------------
|--------------------------------------------------------------
|-3p0-0-0-2p0--0-1p0-0-0-0-0-0-0-1p0-0-0-2p0-0-3p0-0-0-0-0-0-0-
|--------------------------------------------------------------
|--------------------------------------------------------------



|-------------------------------------------------------------------
|-------------------------------------------------------------------
|-------------------------------------------------------------------
|-15-0-0-0-14-0-0-13-0-0-0-0-0-0-0-13-0-0-0-14-0-0-15-0-0-0-0-0-0-0-
|-15-0-0-0-14-0-0-13-0-0-0-0-0-0-0-13-0-0-0-14-0-0-15-0-0-0-0-0-0-0-
|-15-0-0-0-14-0-0-13-0-0-0-0-0-0-0-13-0-0-0-14-0-0-15-0-0-0-0-0-0-0-

play this over top of the previous piece 

|--------------------------------------------------------
|--------------------------------------------------------
|-10t----------------------------------------------------
|--------------------------------------------------------
|--------------------------------------------------------
|--------------------------------------------------------

verse

|-------------------------------------------------------------------------
|-------------------------------------------------------------------------
|-14-14-14-14-14-14-14-14-14-14-14-14-14-14-14-14-19-19-19-19-19-19-19-19-
|-------------------------------------------------------------------------
|-12-12-12-12-12-12-12-12-12-12-12-12-12-12-12-12-17-17-17-17-17-17-17-17-
|-------------------------------------------------------------------------

|-------------------------------------------------------------------------
|-------------------------------------------------------------------------
|-14-14-14-14-14-14-14-14-10-10-10-10-10-10-10-10-10-10-10-10-10-10-10-10-
|-------------------------------------------------------------------------
|-12-12-12-12-12-12-12-12-8--8--8--8--8--8--8--8--8--8--8--8--8--8--8--8--
|-------------------------------------------------------------------------

|----------------------------------
|----------------------------------
|-7-7-7-7-7-7-7-7-7-7-7-7-7-7-7-7--
|-7-7-7-7-7-7-7-7-7-7-7-7-7-7-7-7--
|-5-5-5-5-5-5-5-5-5-5-5-5-5-5-5-5--
|----------------------------------

prechorus

|---------------------------------------------
|---------------------------------------------
|-------14--------10-------7--------5-------9-
|-------12-12-----8--------5-5------3-------7-
|----12-12------8-8------5-5------3-3-----7-7-
|-12----------8--------5--------3-------7-----


chorus

|----------------------------------
|----------------------------------
|-14-14-15-15-12-12-10-10-10-14-14-
|-12-12-15-15-12-12-10-10-10-14-14-
|-12-12-13-13-10-10-8--8--8--12-12-
|----------------------------------

lead guitar part over the later choruses

|--------------------------------------------------------------
|--------------------------------------------------------------
|-14-------14--------14-----15--------15-------15-----14-------
|----15--------15-------15-----15--------15-------15-----12----
|-------12--------12--------------13--------13--------------10-
|--------------------------------------------------------------

|--------------------------------------
|--------------------------------------
|-14-------14-----10-10-10-10----------
|----12-------12--------------12-14h15-
|-------10-----------------------------
|--------------------------------------

solo

I'll get back to ya on that one.

last chorus

|--------------------------------------------------
|--------------------------------------------------
|--------------------------------------------------
|-12-12-8-8-5-5-3-3-3-7-7-12-12-8-8-3-3-5-5-5-8-8--
|-12-12-8-8-5-5-3-3-3-7-7-12-12-8-8-3-3-5-5-5-8-8--
|-12-12-8-8-5-5-3-3-3-7-7-12-12-8-8-3-3-5-5-5-8-8--


|----------------------------------------------------
|----------------------------------------------------
|----------------------------------------------------
|-12-12-8-8-3-3-5-5-5-8-8-12-12-8-8-5-5-3-3-3-7-7-12-
|-12-12-8-8-3-3-5-5-5-8-8-12-12-8-8-5-5-3-3-3-7-7-12-
|-12-12-8-8-3-3-5-5-5-8-8-12-12-8-8-5-5-3-3-3-7-7-12-



6. envy (drop b)



intro


the number of 0's on the 2nd guitar here is probably wrong but you can
figure that much out on your own


|---------------------------------------------------------------------------|
|-----------------------------5h6--3-5-1-3----------------------------------|
|-------------------------------------------0h2------0-2-3----2-0-2---------|
|------------------------------------------------0~~--------0---------0-----|
|---------------------------------------------------------------------------|
|---------------------------------------------------------------------------|
|
|---------------------------------------------------------------------------|
|---------------------------------------------------------------------------|
|---------------------------------------------------------------------------|
|-0-0-0-0-0-0-0-0-0-0-0-0-0-0-0-0-0-0-0-0-0-0-0-0-0-0-0-0-0-0-0-0-0-0-0-0-0-|
|---------------------------------------------------------------------------|
|---------------------------------------------------------------------------|




|---------------------------------------------------------------------------|
|-5h6--3-5-1-3-------------------------5h6--3-5-1-3-------------------------|
|--------------0h2---0-2-3---2-0-2------------------0h2---0-2-3---2-0-2-----|
|------------------0-------3-------0--------------------0-------3-------0---|
|---------------------------------------------------------------------------|
|---------------------------------------------------------------------------|
|
|---------------------------------------------------------------------------|
|---------------------------------------------------------------------------|
|---------------------------------------------------------------------------|
|-0-0-0-0-0-0-0-0-0-0-0-0-0-0-0-0-0-0-0-0-0-0-0-0-0-0-0-0-0-0-0-0-0-0-0-0-0-|
|---------------------------------------------------------------------------|
|---------------------------------------------------------------------------|


    verse ( palm mute the low b string)

        How             will                this
|-----------------------------------------------------------------|
|-----------------------------------------------------------------|
|-----------------------------------------------------------------|
|-----------------------------------------------------------------|
|---------8-------------8-------------8-------------8-------------|
|-0-0-7-7---7-7-0-0-7-7---7-7-0-0-7-7---7-7-0-0-7-7--7-7-0-0------|

        pan out
|-----------------------------------------------------|
|-----------------------------------------------------|
|-----------------------------------------------------|
|-----------------------------------------------------|
|-----7-------------7-------------7-------------7-----|
|-7-7---7-7-0-0-7-7---7-7-0-0-7-7---7-7-0-0-7-7---7-7-|



        search         and                  wish
|-----------------------------------------------------------------|
|-----------------------------------------------------------------|
|-----------------------------------------------------------------|
|-----------------------------------------------------------------|
|---------8-------------8-------------8-------------8-------------|
|-0-0-7-7---7-7-0-0-7-7---7-7-0-0-7-7---7-7-0-0-7-7--7-7-0-0------|

        so   loud
|-----------------------------------------------------|
|-----------------------------------------------------|
|-----------------------------------------------------|
|-----------------------------------------------------|
|-----7-------------7-------------7-------------7-----|
|-7-7---7-7-0-0-7-7---7-7-0-0-7-7---7-7-0-0-7-7---7-7-|


          keep a candle burning
|-----------------------------------------------------------------|
|-----------------------------------------------------------------|
|-----------------------------------------------------------------|
|-----------------------------------------------------------------|
|---------8-------------8-------------8-------------8-------------|
|-0-0-7-7---7-7-0-0-7-7---7-7-0-0-7-7---7-7-0-0-7-7--7-7-0-0------|


|-----------------------------------------------------|
|-----------------------------------------------------|
|-----------------------------------------------------|
|-----------------------------------------------------|
|-----7-------------7-------------7-------------7-----|
|-7-7---7-7-0-0-7-7---7-7-0-0-7-7---7-7-0-0-7-7---7-7-|


          to each his own shall  learn
|-----------------------------------------------------------------|
|-----------------------------------------------------------------|
|-----------------------------------------------------------------|
|-----------------------------------------------------------------|
|---------8-------------8-------------8-------------8-------------|
|-0-0-7-7---7-7-0-0-7-7---7-7-0-0-7-7---7-7-0-0-7-7--7-7-0-0------|


|-----------------------------------------------------|
|-----------------------------------------------------|
|-----------------------------------------------------|
|-----------------------------------------------------|
|-----7-------------7-------------7-------------7-----|
|-7-7---7-7-0-0-7-7---7-7-0-0-7-7---7-7-0-0-7-7---7-7-|



 chorus


  before i turn     in envy         I learn through sorrow I
|-----------------------------------------------------------------|
|-----------------------------------------------------------------|
|-7-7-7-7-7-7-7-7-5-5-5-5-5-5-5-5---------------------------------|
|-7-7-7-7-7-7-7-7-5-5-5-5-5-5-5-5-3-3-3-3-3-3-3-3-5-5-5-5-5-5-5-5-|
|-5-5-5-5-5-5-5-5-3-3-3-3-3-3-3-3-3-3-3-3-3-3-3-3-5-5-5-5-5-5-5-5-|
|---------------------------------3-3-3-3-3-3-3-3-5-5-5-5-5-5-5-5-|

  turn   in      envy     and    go    to   the wall
|---------------------------------------------------|
|---------------------------------------------------|
|-7-7-7-7-7-7-7-7-5-5-5-5-5-5-5-5-------------------|
|-7-7-7-7-7-7-7-7-5-5-5-5-5-5-5-5-3-3-3-3-3-3-3-3-5-|
|-5-5-5-5-5-5-5-5-3-3-3-3-3-3-3-3-3-3-3-3-3-3-3-3-5-|
|---------------------------------3-3-3-3-3-3-3-3-5-|


 verse

   see how your colors run
|-----------------------------------------------------------------|
|-----------------------------------------------------------------|
|-----------------------------------------------------------------|
|-----------------------------------------------------------------|
|---------8-------------8-------------8-------------8-------------|
|-0-0-7-7---7-7-0-0-7-7---7-7-0-0-7-7---7-7-0-0-7-7--7-7-0-0------|
|
|
|-----------------------------------------------------------------|
|-----------------------------------------------------------------|
|-----------------------------------------------------------------|
|---------3------------3--------------3-------------3-------------|
|-----0------0-----0------0------0-------0------0-----0-----------|
|-0-------------0-------------0-------------0-------------0-------|



    and feel your sunday rest
|-----------------------------------------------------|
|-----------------------------------------------------|
|-----------------------------------------------------|
|-----------------------------------------------------|
|-----7-------------7-------------7-------------7-----|
|-7-7---7-7-0-0-7-7---7-7-0-0-7-7---7-7-0-0-7-7---7-7-|
|
|
|-----------------------------------------------------|
|-----------------------------------------------------|
|-----------------------------------------------------|
|-----2-------------2-------------2-------------2-----|
|-0------0------0------0------0-----0-------0------0--|
|-----------0-------------0-------------0-------------|

      give it a name, ring it in, some
|-----------------------------------------------------------------|
|-----------------------------------------------------------------|
|-----------------------------------------------------------------|
|-----------------------------------------------------------------|
|---------8-------------8-------------8-------------8-------------|
|-0-0-7-7---7-7-0-0-7-7---7-7-0-0-7-7---7-7-0-0-7-7--7-7-0-0------|
|
|
|------------------------------------------------------------------|
|------------------------------------------------------------------|
|------------------------------------------------------------------|
|---------3------------3--------------3-------------3--------------|
|-----0------0-----0------0------0-------0------0-----0------------|
|-0-------------0-------------0-------------0-------------0--------|



    change is for the best
|-----------------------------------------------------|
|-----------------------------------------------------|
|-----------------------------------------------------|
|-----------------------------------------------------|
|-----7-------------7-------------7-------------7-----|
|-7-7---7-7-0-0-7-7---7-7-0-0-7-7---7-7-0-0-7-7---7-7-|
|
|
|-----------------------------------------------------|
|-----------------------------------------------------|
|-----------------------------------------------------|
|-----2-------------2-------------2-------------2-----|
|-0------0------0------0------0-----0-------0------0--|
|-----------0-------------0-------------0-------------|

   0h I may not win the race, I may not reach the top, oh I may not live your way,
|-----------------------------------------------------------------|
|-----------------------------------------------------------------|
|-----------------------------------------------------------------|
|-----------------------------------------------------------------|
|---------8-------------8-------------8-------------8-------------|
|-0-0-7-7---7-7-0-0-7-7---7-7-0-0-7-7---7-7-0-0-7-7--7-7-0-0------|
|
|
|------------------------------------------------------------------|
|------------------------------------------------------------------|
|------------------------------------------------------------------|
|---------3------------3--------------3-------------3--------------|
|-----0------0-----0------0------0-------0------0-----0------------|
|-0-------------0-------------0-------------0-------------0--------|



 but it does not mean I'm stuck here
|-----------------------------------------------------|
|-----------------------------------------------------|
|-----------------------------------------------------|
|-----------------------------------------------------|
|-----7-------------7-------------7-------------7-----|
|-7-7---7-7-0-0-7-7---7-7-0-0-7-7---7-7-0-0-7-7---7-7-|
|
|
|-----------------------------------------------------|
|-----------------------------------------------------|
|-----------------------------------------------------|
|-----2-------------2-------------2-------------2-----|
|-0------0------0------0------0-----0-------0------0--|
|-----------0-------------0-------------0-------------|

   We may not fit the mold, kind of going off now, the medicine
|-----------------------------------------------------------------|
|-----------------------------------------------------------------|
|-----------------------------------------------------------------|
|-----------------------------------------------------------------|
|---------8-------------8-------------8-------------8-------------|
|-0-0-7-7---7-7-0-0-7-7---7-7-0-0-7-7---7-7-0-0-7-7--7-7-0-0------|
|
|
|------------------------------------------------------------------|
|------------------------------------------------------------------|
|------------------------------------------------------------------|
|---------3------------3--------------3-------------3--------------|
|-----0------0-----0------0------0-------0------0-----0------------|
|-0-------------0-------------0-------------0-------------0--------|



        inside takes a stronger hold
|-----------------------------------------------------|
|-----------------------------------------------------|
|-----------------------------------------------------|
|-----------------------------------------------------|
|-----7-------------7-------------7-------------7-----|
|-7-7---7-7-0-0-7-7---7-7-0-0-7-7---7-7-0-0-7-7---7-7-|
|
|
|-----------------------------------------------------|
|-----------------------------------------------------|
|-----------------------------------------------------|
|-----2-------------2-------------2-------------2-----|
|-0------0------0------0------0-----0-------0------0--|
|-----------0-------------0-------------0-------------|



chorus


   before i turn     in envy         I learn through sorrow I
|-----------------------------------------------------------------|
|-----------------------------------------------------------------|
|-7-7-7-7-7-7-7-7-5-5-5-5-5-5-5-5---------------------------------|
|-7-7-7-7-7-7-7-7-5-5-5-5-5-5-5-5-3-3-3-3-3-3-3-3-5-5-5-5-5-5-5-5-|
|-5-5-5-5-5-5-5-5-3-3-3-3-3-3-3-3-3-3-3-3-3-3-3-3-5-5-5-5-5-5-5-5-|
|---------------------------------3-3-3-3-3-3-3-3-5-5-5-5-5-5-5-5-|

  turn   in      envy     and    go    to   the wall
|-----------------------------------------------------------------|
|-----------------------------------------------------------------|
|-7-7-7-7-7-7-7-7-5-5-5-5-5-5-5-5---------------------------------|
|-7-7-7-7-7-7-7-7-5-5-5-5-5-5-5-5-3-3-3-3-3-3-3-3-5-5-5-5-5-5-5-5-|
|-5-5-5-5-5-5-5-5-3-3-3-3-3-3-3-3-3-3-3-3-3-3-3-3-5-5-5-5-5-5-5-5-|
|---------------------------------3-3-3-3-3-3-3-3-5-5-5-5-5-5-5-5-|


   before i learn     in envy         I learn through sorrow I
|-----------------------------------------------------------------|
|-----------------------------------------------------------------|
|-7-7-7-7-7-7-7-7-5-5-5-5-5-5-5-5---------------------------------|
|-7-7-7-7-7-7-7-7-5-5-5-5-5-5-5-5-3-3-3-3-3-3-3-3-5-5-5-5-5-5-5-5-|
|-5-5-5-5-5-5-5-5-3-3-3-3-3-3-3-3-3-3-3-3-3-3-3-3-5-5-5-5-5-5-5-5-|
|---------------------------------3-3-3-3-3-3-3-3-5-5-5-5-5-5-5-5-|


  learn   in      envy     and    go    to   the wall
|---------------------------------------------------|
|---------------------------------------------------|
|-7-7-7-7-7-7-7-7-5-5-5-5-5-5-5-5-------------------|
|-7-7-7-7-7-7-7-7-5-5-5-5-5-5-5-5-3-3-3-3-3-3-3-3-5-|
|-5-5-5-5-5-5-5-5-3-3-3-3-3-3-3-3-3-3-3-3-3-3-3-3-5-|
|---------------------------------3-3-3-3-3-3-3-3-5-|


interlude

to the wall
|-----------------------------------------------------------------|
|-----------------------------------------------------------------|
|-7-7-7-7-7-7-7-7-5-5-5-5-5-5-5-5---------------------------------|
|-7-7-7-7-7-7-7-7-5-5-5-5-5-5-5-5-3-3-3-3-3-3-3-3-5-5-5-5-5-5-5-5-|
|-5-5-5-5-5-5-5-5-3-3-3-3-3-3-3-3-3-3-3-3-3-3-3-3-5-5-5-5-5-5-5-5-|
|---------------------------------3-3-3-3-3-3-3-3-5-5-5-5-5-5-5-5-|

to the wall
|-----------------------------------------------------------------|
|-----------------------------------------------------------------|
|-7-7-7-7-7-7-7-7-5-5-5-5-5-5-5-5---------------------------------|
|-7-7-7-7-7-7-7-7-5-5-5-5-5-5-5-5-3-3-3-3-3-3-3-3-5-5-5-5-5-5-5-5-|
|-5-5-5-5-5-5-5-5-3-3-3-3-3-3-3-3-3-3-3-3-3-3-3-3-5-5-5-5-5-5-5-5-|
|---------------------------------3-3-3-3-3-3-3-3-5-5-5-5-5-5-5-5-|

to the wall
|-----------------------------------------------------------------|
|-----------------------------------------------------------------|
|-7-7-7-7-7-7-7-7-5-5-5-5-5-5-5-5---------------------------------|
|-7-7-7-7-7-7-7-7-5-5-5-5-5-5-5-5-3-3-3-3-3-3-3-3-5-5-5-5-5-5-5-5-|
|-5-5-5-5-5-5-5-5-3-3-3-3-3-3-3-3-3-3-3-3-3-3-3-3-5-5-5-5-5-5-5-5-|
|---------------------------------3-3-3-3-3-3-3-3-5-5-5-5-5-5-5-5-|

to the wall
|-----------------------------------------------------------------|
|-----------------------------------------------------------------|
|-7-7-7-7-7-7-7-7-5-5-5-5-5-5-5-5---------------------------------|
|-7-7-7-7-7-7-7-7-5-5-5-5-5-5-5-5-3-3-3-3-3-3-3-3-5-5-5-5-5-5-5-5-|
|-5-5-5-5-5-5-5-5-3-3-3-3-3-3-3-3-3-3-3-3-3-3-3-3-5-5-5-5-5-5-5-5-|
|---------------------------------3-3-3-3-3-3-3-3-5-5-5-5-5-5-5-5-|

   before i turn     in envy         I learn through sorrow I
to the wall
|-----------------------------------------------------------------|
|-----------------------------------------------------------------|
|-7-7-7-7-7-7-7-7-5-5-5-5-5-5-5-5---------------------------------|
|-7-7-7-7-7-7-7-7-5-5-5-5-5-5-5-5-3-3-3-3-3-3-3-3-5-5-5-5-5-5-5-5-|
|-5-5-5-5-5-5-5-5-3-3-3-3-3-3-3-3-3-3-3-3-3-3-3-3-5-5-5-5-5-5-5-5-|
|---------------------------------3-3-3-3-3-3-3-3-5-5-5-5-5-5-5-5-|

  turn   in      envy     and    go                 to   the wall
to the wal
|------------------------------------------------------|
|------------------------------------------------------|
|-7-7-7-7-7-7-7-7-5-5-5-5-5-5-5-5----------------------|
|-7-7-7-7-7-7-7-7-5-5-5-5-5-5-5-5-3-3-3-3-3-3-3-3-5-\0-|
|-5-5-5-5-5-5-5-5-3-3-3-3-3-3-3-3-3-3-3-3-3-3-3-3-5-\0-|
|---------------------------------3-3-3-3-3-3-3-3-5-\0-|


outro

|-----------------------------------------------------------------|
|-----------------------------------------------------------------|
|-----------------------------------------------------------------|
|---------3------------3--------------3-------------3-------------|
|-----0------0-----0------0------0-------0------0-----0-----------|
|-0-------------0-------------0-------------0-------------0-------|


|-----------------------------------------------------|
|-----------------------------------------------------|
|-----------------------------------------------------|
|-----2-------------2-------------2-------------2-----|
|-0------0------0------0------0-----0-------0------0--|
|-----------0-------------0-------------0-------------|



|-----------------------------------------------------------------|
|-----------------------------------------------------------------|
|-----------------------------------------------------------------|
|---------3------------3--------------3-------------3-------------|
|-----0------0-----0------0------0-------0------0-----0-----------|
|-0-------------0-------------0-------------0-------------0-------|

|-----------------------------------------------------|
|-----------------------------------------------------|
|-----------------------------------------------------|
|-----2-------------2-------------2-------------2-----|
|-0------0------0------0------0-----0-------0------0--|
|-----------0-------------0-------------0-------------|


|-----------------------------------------------------------------|
|-----------------------------------------------------------------|
|-----------------------------------------------------------------|
|---------3------------3--------------3-------------3-------------|
|-----0------0-----0------0------0-------0------0-----0-----------|
|-0-------------0-------------0-------------0-------------0-------|


|-------------------------------------------------------|
|-------------------------------------------------------|
|-------------------------------------------------------|
|-----2-------------2-------------2-------------2-------|
|-0------0------0------0------0-----0-------0------0----|
|-----------0-------------0-------------0-------------0-|



7. Hats Off to the Bull (drop c)


verse 1

halfway through you play this note a whole bunch

|----------------------------------------------------------------------------|
|----------------------------------------------------------------------------|
|-17-------------------------------------------------------------------------|
|----------------------------------------------------------------------------|
|----------------------------------------------------------------------------|
|----------------------------------------------------------------------------|


chorus

pick scrapes first


|-------------------------------------------------------------------------|
|-------------------------------------------------------------------------|
|-------------------------------------------------------------------------|
|-15-15-15-15-12-12-12-12-10-10-10-10-12-12-12-12--0---0---0--10-10-10-10-|     X3
|-15-15-15-15-12-12-12-12-10-10-10-10-12-12-12-12--0---0---0--10-10-10-10-|
|-15-15-15-15-12-12-12-12-10-10-10-10-12-12-12-12--0---0---0--10-10-10-10-|

|---------------------------------------------------------------|
|---------------------------------------------------------------|
|---------------------------------------------------------------|
|-15-15-15-15-12-12-12-12-10-10-10-10-12-12-12-12--0---0---0--\-|
|-15-15-15-15-12-12-12-12-10-10-10-10-12-12-12-12--0---0---0--\-|
|-15-15-15-15-12-12-12-12-10-10-10-10-12-12-12-12--0---0---0--\-|



verse 2




|-----------------------------------------------|
|-----------------------------------------------|
|-11-11-11-11-11-11-11-11-11-11-11-11-11-11h12--|       x2
|-----------------------------------------------|
|-----------------------------------------------|
|-----------------------------------------------|


|-----------------------------------------------------------------------------------------|
|-----------------------------------------------------------------------------------------|
|-19-----------------------------------17-------------------------------------------------|
|-----------------------------------------------------------------------------------------|
|-----------------------------------------------------------------------------------------|
|-----------------------------------------------------------------------------------------|
|
|-----------------------------------------------------------------------------------------|
|-----------------------------------------------------------------------------------------|
|----------7-7-7-7-5--------7-7-5-7b--------11-11-11-11-11-11-11-11-11-11-11-11-11-11h12--|
|-----------------------------------------------------------------------------------------|
|-----------------------------------------------------------------------------------------|
|-----------------------------------------------------------------------------------------|

chorus

pick scrapes first


|-------------------------------------------------------------------------|
|-------------------------------------------------------------------------|
|-------------------------------------------------------------------------|
|-15-15-15-15-12-12-12-12-10-10-10-10-12-12-12-12--0---0---0--10-10-10-10-|     X3
|-15-15-15-15-12-12-12-12-10-10-10-10-12-12-12-12--0---0---0--10-10-10-10-|
|-15-15-15-15-12-12-12-12-10-10-10-10-12-12-12-12--0---0---0--10-10-10-10-|

|---------------------------------------------------------------|
|---------------------------------------------------------------|
|---------------------------------------------------------------|
|-15-15-15-15-12-12-12-12-10-10-10-10-12-12-12-12--0---0---0--\-|
|-15-15-15-15-12-12-12-12-10-10-10-10-12-12-12-12--0---0---0--\-|
|-15-15-15-15-12-12-12-12-10-10-10-10-12-12-12-12--0---0---0--\-|


interlude


|-----------------------------------------------------------------------------------------------|
|---11---11----11---11---11---11---11---11---11---11---11---11---12---12---12---12--------------|
|-7----7----7-----7----7----7----7----7----7----7----7----7----7----7----7----7-----------------|
|-----------------------------------------------------------------------------------------------|
|-----------------------------------------------------------------------------------------------|
|-----------------------------------------------------------------------------------------------|
|
|-----------------------------------------------------------------------------------------------|
|-----------------------------------------------------------------------------------------------|
|-----------------------------------------------------------------------------------------------|
|-----------------------------------------------------------------------------------------------|
|-------10--10--10--10----------8--8--8--8-----------7---7---7---7------5--5--5--5--------------|
|-0--0-------------------0--0-----------------0--0-----------------0--0-------------------------|

|-----------------------------------------------------------------------------------------------|
|---11---11----11---11---11---11---11---11---11---11---11---11---12---12---12---12--------------|
|-7----7----7-----7----7----7----7----7----7----7----7----7----7----7----7----7-----------------|
|-----------------------------------------------------------------------------------------------|
|-----------------------------------------------------------------------------------------------|
|-----------------------------------------------------------------------------------------------|
|
|-----------------------------------------------------------------------------------------------|
|-----------------------------------------------------------------------------------------------|
|-----------------------------------------------------------------------------------------------|
|-----------------------------------------------------------------------------------------------|
|-------10--10--10--10----------8--8--8--8-----------7---7---7---7------5--5--5--5--------------|
|-0--0-------------------0--0-----------------0--0-----------------0--0-------------------------|


|----------------------------------------------------------------------------------|
|----------------------------------------------------------------------------------|
|-------12--12--12--12----------10-10-10-10---------9--9--9--9--------8\7--7--7----|
|----------------------------------------------------------------------------------|
|-------10--10--10--10----------8--8--8--8----------7--7--7--7--------6\5--5--5----|
|-0--0------------------0--0-----------------0--0---------------0--0---------------|



|----------------------------------------------------------------------------------|
|----------------------------------------------------------------------------------|
|-------12--12--12--12----------10-10-10-10---------9--9--9--9--------8\7--7--7----|
|----------------------------------------------------------------------------------|
|-------10--10--10--10----------8--8--8--8----------7--7--7--7--------6\5--5--5----|
|-0--0------------------0--0-----------------0--0---------------0--0---------------|


|---------------------------------------------------------------------------------|
|---------------------------------------------------------------------------------|
|-13t------------------------------------------\10t-------------------------------|
|---------------------------------------------------------------------------------|
|-11t------------------------------------------\8t--------------------------------|
|---------------------------------------------------------------------------------|
|
|----------------------------------------------------------------------------------|
|----------------------------------------------------------------------------------|
|-------13--13--13--13----------10-10-10-10---------9--9--9--9--------8\7--7--7----|
|----------------------------------------------------------------------------------|
|-------11--11--11--11----------8--8--8--8----------7--7--7--7--------6\5--5--5----|
|-0--0------------------0--0-----------------0--0---------------0--0---------------|


|---------------------------------------------------------------------------------|
|---------------------------------------------------------------------------------|
|-13t------------------------------------------\10t-------------------------------|
|---------------------------------------------------------------------------------|
|-11t------------------------------------------\8t--------------------------------|
|---------------------------------------------------------------------------------|
|
|---------------------------------------------------------------------------------|
|---------------------------------------------------------------------------------|
|-----13--13--13--13-----------10-10-10-10----------9--9--9--9--7\9-9-9\10-10-10--|
|---------------------------------------------------------------------------------|
|-----11--11--11--11-----------8--8--8--8-----------7--7--7--7--5\7-7-7\8--8--8---|
|-0--0------------------0--0-----------------0--0---------------------------------|

|---------------------------------------------------------------------------------|
|---------------------------------------------------------------------------------|
|-15t-------------------------------------------\10t------------------------------|
|---------------------------------------------------------------------------------|
|-13t-------------------------------------------\8t-------------------------------|
|---------------------------------------------------------------------------------|
|
|---------------------------------------------------------------------------------|
|---------------------------------------------------------------------------------|
|-------13--13--13--13----------10-10-10-10---------9--9--9--9--------8\7--7--7---|
|---------------------------------------------------------------------------------|
|-------11--11--11--11----------8--8--8--8----------7--7--7--7--------6\5--5--5---|
|-0--0------------------0--0-----------------0--0---------------0--0--------------|


|--------------------------------------------------------------------------------------------|
|--------------------------------------------------------------------------------------------|
|---------------------17t--------------------------19t----------------21t--------19----19----|
|--------------------------------------------------------------------------------------------|
|---------------------15t--------------------------17t----------------19t--------17-17---17\-|
|--------------------------------------------------------------------------------------------|
|
|--------------------------------------------------------------------------------------------|
|--------------------------------------------------------------------------------------------|
|-------13--13--13--13---------17-17-17-17---------19-19-19-19--------21-21-21-21-19---------|
|--------------------------------------------------------------------------------------------|
|-------11--11--11--11---------15-15-15-15---------17-17-17-17--------19-19-19-19-17---------|
|-0--0------------------0--0-----------------0--0---------------0--0-------------------------|


prechorus

|-------------------------------------------------------------------------|
|-------------------------------------------------------------------------|
|-------------------------------------------------------------------------|    x3
|-------------------------------------------------------------------------|
|-------------------------------------------------------------------------|
|-15-15-15-15-12-12-12-12-10-10-10-10-12-12-12-12--0---0---0--10-10-10-10-|


|-------------------------------------------------------------------------|
|-------------------------------------------------------------------------|
|-------------------------------------------------------------------------|
|-------------------------------------------------------------------------|
|-------------------------------------------------------------------------|
|-15-15-15-15-12-12-12-12-10-10-10-10-12-12-12-12--0---0---0--------------|

chorus

|-------------------------------------------------------------------------|
|-------------------------------------------------------------------------|
|-------------------------------------------------------------------------|
|-15-15-15-15-12-12-12-12-10-10-10-10-12-12-12-12--0---0---0--10-10-10-10-|     X4
|-15-15-15-15-12-12-12-12-10-10-10-10-12-12-12-12--0---0---0--10-10-10-10-|
|-15-15-15-15-12-12-12-12-10-10-10-10-12-12-12-12--0---0---0--10-10-10-10-|



|--------------------------------------------------------------------------------------|
|--------------------------------------------------------------------------------------|
|--------------------------------------------------------------------------------------|
|-15-15-15-15-12-12-12-12-10-10-10-10-12-12-12-12--10h12-12-12-10h12-12-12-10h12-12-12-|    X3
|-15-15-15-15-12-12-12-12-10-10-10-10-12-12-12-12--10h12-12-12-10h12-12-12-10h12-12-12-|
|-15-15-15-15-12-12-12-12-10-10-10-10-12-12-12-12--10h12-12-12-10h12-12-12-10h12-12-12-|


|---------------------------------------------------------------|
|---------------------------------------------------------------|
|---------------------------------------------------------------|
|-15-15-15-15-12-12-12-12-10-10-10-10-12-12-12-12--0---0---0--\-|
|-15-15-15-15-12-12-12-12-10-10-10-10-12-12-12-12--0---0---0--\-|
|-15-15-15-15-12-12-12-12-10-10-10-10-12-12-12-12--0---0---0--\-|



8. Arise (drop c)



intro
|----------------------------------------------------------------------|
|----------------------------------------------------------------------|
|----------------------------------------------------------------------|
|-9-9-9-9-9--9-9-9--4--12--9-9-9-9-9--9-9-9-4-12-9-9-9-9-9--9-9-9-4-12-|
|----------------------------------------------------------------------|
|-9-9-9-9-9--9-9-9--4--12--9-9-9-9-9--9-9-9-4-12-9-9-9-9-9--9-9-9-4-12-|


verse

|--------------------------------------------------------------------|
|--------------------------------------------------------------------|
|-11-11-11-11-11-11-11-11-11-11-11-11-11-11-11-11-11-11-11-11-11-11--|
|--------------------------------------------------------------------|
|-9--9--9--9--9--9--9--9--9--9--9--9--9--9--9--9--9--9--9--9--9--9---|
|--------------------------------------------------------------------|



|-------------------------------------------------------------------|
|-------------------------------------------------------------------|
|-12-12-12-12-12-12-12-12-12-12-12-12-12-12-12-12-12-12-12-12-12-12-|
|-------------------------------------------------------------------|
|-10-10-10-10-10-10-10-10-10-10-10-10-10-10-10-10-10-10-10-10-10-10-|
|-------------------------------------------------------------------|


|--------------------------------------------------------------------|
|--------------------------------------------------------------------|
|-11-11-11-11-11-11-11-11-11-11-11-11-11-11-11-11-11-11-11-11-11-11--|
|--------------------------------------------------------------------|
|-9--9--9--9--9--9--9--9--9--9--9--9--9--9--9--9--9--9--9--9--9--9---|
|--------------------------------------------------------------------|



|-------------------------------------------------------------------|
|-------------------------------------------------------------------|
|-12-12-12-12-12-12-12-12-12-12-12-12-12-12-12-12-12-12-12-12-12-12-|
|-------------------------------------------------------------------|
|-10-10-10-10-10-10-10-10-10-10-10-10-10-10-10-10-10-10-10-10-10-10-|
|-------------------------------------------------------------------|

|-------------------------------------|
|-------------------------------------|
|-------------------------------------|
|-9-9-9-9-9-9-9-9-9-9-9-9-9-9-9-9-9-9-|
|-------------------------------------|
|-9-9-9-9-9-9-9-9-9-9-9-9-9-9-9-9-9-9-|


|-------------------------------------------------------------------|
|-------------------------------------------------------------------|
|-12-12-12-12-12-12-12-12-12-12-12-12-12-12-12-12-12-12-12-12-12-12-|
|-------------------------------------------------------------------|
|-10-10-10-10-10-10-10-10-10-10-10-10-10-10-10-10-10-10-10-10-10-10-|
|-------------------------------------------------------------------|

|-------------------------------------|
|-------------------------------------|
|-------------------------------------|
|-9-9-9-9-9-9-9-9-9-9-9-9-9-9-9-9-9-9-|
|-------------------------------------|
|-9-9-9-9-9-9-9-9-9-9-9-9-9-9-9-9-9-9-|


|----------------------------------------------------------|
|----------------------------------------------------------|
|-12-12-12-12-12-12-12-12-12-12-12-12-12-12-12-12-12-12-12-|
|----------------------------------------------------------|
|-10-10-10-10-10-10-10-10-10-10-10-10-10-10-10-10-10-10-10-|
|----------------------------------------------------------|

chorus

|-------------------------------------------------------------------------|
|15t----------------------------------------------------------------------|
|-------------------------------------------------------------------------|
|-------------------------------------------------------------------------|
|-------------------------------------------------------------------------|
|-------------------------------------------------------------------------|
|
|-------------------------------------------------------------------------|
|-------------------------------------------------------------------------|
|-------------------------------------------------------------------------|
|-12-12-12-12-12-12-12-12-12-12-12-12-12-12-12-12-12-12-12-12-12-12-12-12-|
|-12-12-12-12-12-12-12-12-12-12-12-12-12-12-12-12-12-12-12-12-12-12-12-12-|
|-12-12-12-12-12-12-12-12-12-12-12-12-12-12-12-12-12-12-12-12-12-12-12-12-|


|-----------------------------------------------------------------|
|19t-----------------------------17t------------------------------|
|-----------------------------------------------------------------|
|-----------------------------------------------------------------|
|-----------------------------------------------------------------|
|-----------------------------------------------------------------|
|
|-----------------------------------------------------------------|
|-----------------------------------------------------------------|
|-----------------------------------------------------------------|
|-9-9-9-9-9-9-9-9-9-9-9-9-9-9-9-9-7-7-7-7-7-7-7-7-7-7-7-7-7-7-7-7-|
|-9-9-9-9-9-9-9-9-9-9-9-9-9-9-9-9-7-7-7-7-7-7-7-7-7-7-7-7-7-7-7-7-|
|-9-9-9-9-9-9-9-9-9-9-9-9-9-9-9-9-7-7-7-7-7-7-7-7-7-7-7-7-7-7-7-7-|


verse 2

|----------------------------|
|----------------------------|
|----------------------------|
|-9-9-9-9-9-9-9-11-12-16-17\-|
|-------------9-11-12-16-17\-|
|-9-9-9-9-9-9-9-11-12-16-17\-|

|-------------------------------------------------------------------|
|-17t---------------------------------------------------------------|
|-------------------------------------------------------------------|
|-------------------------------------------------------------------|
|-------------------------------------------------------------------|
|-------------------------------------------------------------------|
|
|-------------------------------------------------------------------|
|-------------------------------------------------------------------|
|-12-12-12-12-12-12-12-12-12-12-12-12-12-12-12-12-12-12-12-12-12-12-|
|-------------------------------------------------------------------|
|-10-10-10-10-10-10-10-10-10-10-10-10-10-10-10-10-10-10-10-10-10-10-|
|-------------------------------------------------------------------|

|-------------------------------------------------------------------|
|-17h19-12t---------------------------------------------------------|
|-------------------------------------------------------------------|
|-------------------------------------------------------------------|
|-------------------------------------------------------------------|
|-------------------------------------------------------------------|
|
|--------------------------------------------------------------------|
|--------------------------------------------------------------------|
|-11-11-11-11-11-11-11-11-11-11-11-11-11-11-11-11-11-11-11-11-11-11--|
|--------------------------------------------------------------------|
|-9--9--9--9--9--9--9--9--9--9--9--9--9--9--9--9--9--9--9--9--9--9---|
|--------------------------------------------------------------------|

|--------------------------------------------------------------------|
|-17t----------------------------------------------------------------|
|--------------------------------------------------------------------|
|--------------------------------------------------------------------|
|--------------------------------------------------------------------|
|--------------------------------------------------------------------|
|
|-------------------------------------------------------------------|
|-------------------------------------------------------------------|
|-12-12-12-12-12-12-12-12-12-12-12-12-12-12-12-12-12-12-12-12-12-12-|
|-------------------------------------------------------------------|
|-10-10-10-10-10-10-10-10-10-10-10-10-10-10-10-10-10-10-10-10-10-10-|
|-------------------------------------------------------------------|

|-------------------------------------------------------------------|
|-17h19-12t---------------------------------------------------------|
|-------------------------------------------------------------------|
|-------------------------------------------------------------------|
|-------------------------------------------------------------------|
|-------------------------------------------------------------------|
|
|----------------------------------------------------------------|
|----------------------------------------------------------------|
|-11-11-11-11-11-11-11-11-11-11-11-11-11-11-11-11----------------|
|-------------------------------------------------9-11-12-16-17\-|
|-9--9--9--9--9--9--9--9--9--9--9--9--9--9--9--9--9-11-12-16-17\-|
|-------------------------------------------------9-11-12-16-17\-|

|-------------------------------------------------------------------|
|-------------------------------------------------------------------|
|-12-12-12-12-12-12-12-12-12-12-12-12-12-12-12-12-12-12-12-12-12-12-|
|-------------------------------------------------------------------|
|-10-10-10-10-10-10-10-10-10-10-10-10-10-10-10-10-10-10-10-10-10-10-|
|-------------------------------------------------------------------|


|--------------------------------------------------------------------|
|--------------------------------------------------------------------|
|-11-11-11-11-11-11-11-11-11-11-11-11-11-11-11-11-11-11-11-11-11-11--|
|--------------------------------------------------------------------|
|-9--9--9--9--9--9--9--9--9--9--9--9--9--9--9--9--9--9--9--9--9--9---|
|--------------------------------------------------------------------|

|-------------------------------------------------------------------|
|-------------------------------------------------------------------|
|-12-12-12-12-12-12-12-12-12-12-12-12-12-12-12-12-12-12-12-12-12-12-|
|-------------------------------------------------------------------|
|-10-10-10-10-10-10-10-10-10-10-10-10-10-10-10-10-10-10-10-10-10-10-|
|-------------------------------------------------------------------|

chorus

|-------------------------------------------------------------------------|
|15t----------------------------------------------------------------------|
|-------------------------------------------------------------------------|
|-------------------------------------------------------------------------|
|-------------------------------------------------------------------------|
|-------------------------------------------------------------------------|
|
|-------------------------------------------------------------------------|
|-------------------------------------------------------------------------|
|-------------------------------------------------------------------------|
|-12-12-12-12-12-12-12-12-12-12-12-12-12-12-12-12-12-12-12-12-12-12-12-12-|
|-12-12-12-12-12-12-12-12-12-12-12-12-12-12-12-12-12-12-12-12-12-12-12-12-|
|-12-12-12-12-12-12-12-12-12-12-12-12-12-12-12-12-12-12-12-12-12-12-12-12-|


|-----------------------------------------------------------------|
|19t-----------------------------17t------------------------------|
|-----------------------------------------------------------------|
|-----------------------------------------------------------------|
|-----------------------------------------------------------------|
|-----------------------------------------------------------------|
|
|-----------------------------------------------------------------|
|-----------------------------------------------------------------|
|-----------------------------------------------------------------|
|-9-9-9-9-9-9-9-9-9-9-9-9-9-9-9-9-7-7-7-7-7-7-7-7-7-7-7-7-7-7-7-7-|
|-9-9-9-9-9-9-9-9-9-9-9-9-9-9-9-9-7-7-7-7-7-7-7-7-7-7-7-7-7-7-7-7-|
|-9-9-9-9-9-9-9-9-9-9-9-9-9-9-9-9-7-7-7-7-7-7-7-7-7-7-7-7-7-7-7-7-|

|-------------------------------------------------------------------------|
|15t----------------------------------------------------------------------|
|-------------------------------------------------------------------------|
|-------------------------------------------------------------------------|
|-------------------------------------------------------------------------|
|-------------------------------------------------------------------------|
|
|-------------------------------------------------------------------------|
|-------------------------------------------------------------------------|
|-------------------------------------------------------------------------|
|-12-12-12-12-12-12-12-12-12-12-12-12-12-12-12-12-12-12-12-12-12-12-12-12-|
|-12-12-12-12-12-12-12-12-12-12-12-12-12-12-12-12-12-12-12-12-12-12-12-12-|
|-12-12-12-12-12-12-12-12-12-12-12-12-12-12-12-12-12-12-12-12-12-12-12-12-|


|-----------------------------------------------------------------|
|19t-----------------------------17t------------------------------|
|-----------------------------------------------------------------|
|-----------------------------------------------------------------|
|-----------------------------------------------------------------|
|-----------------------------------------------------------------|
|
|-----------------------------------------------------------------|
|-----------------------------------------------------------------|
|-----------------------------------------------------------------|
|-9-9-9-9-9-9-9-9-9-9-9-9-9-9-9-9-7-7-7-7-7-7-7-7-7-7-7-7-7-7-7-7-|
|-9-9-9-9-9-9-9-9-9-9-9-9-9-9-9-9-7-7-7-7-7-7-7-7-7-7-7-7-7-7-7-7-|
|-9-9-9-9-9-9-9-9-9-9-9-9-9-9-9-9-7-7-7-7-7-7-7-7-7-7-7-7-7-7-7-7-|

build  up (theres an acoustic struming these in the background)

also another guitar messes around on the 12 fret of the 2nd string
during this part

|--------------------------------------------------------|
|--------------------------------------------------------|
|--------------------------------------------------------|
|-5-7-5-7------------------------------------------------|
|-5-7-5-7------------------------------------------------|
|-5-7-5-7------------------------------------------------|

interlude

|-------------------------------------------------------|
|-------------------------------------------------------|
|-------------------------------------------------------|
|-5-5-5-5-5-5-5-5-12-12-12-12-12-12-12-12-7-7-7-7-7-7-7-|
|-5-5-5-5-5-5-5-5-12-12-12-12-12-12-12-12-7-7-7-7-7-7-7-|
|-5-5-5-5-5-5-5-5-12-12-12-12-12-12-12-12-7-7-7-7-7-7-7-|


|-------------|
|-------------|
|-------------|
|-2-2-2-2-2-4-|
|-2-2-2-2-2-4-|
|-2-2-2-2-2-4-|

|-------------------------------------------------------|
|-------------------------------------------------------|
|-------------------------------------------------------|
|-5-5-5-5-5-5-5-5-12-12-12-12-12-12-12-12-7-7-7-7-7-7-7-|
|-5-5-5-5-5-5-5-5-12-12-12-12-12-12-12-12-7-7-7-7-7-7-7-|
|-5-5-5-5-5-5-5-5-12-12-12-12-12-12-12-12-7-7-7-7-7-7-7-|


|-------------|
|-------------|
|-------------|
|-2-2-2-2-2-4-|
|-2-2-2-2-2-4-|
|-2-2-2-2-2-4-|

|---------------------------------------------------------|
|---------------------------------------------------------|
|---------------------------------------------------------|
|-5-5-5-5-5-5-5-5-9-9-9-9-9-9-9-9-12-12-12-12-12-12-12-12-|
|-5-5-5-5-5-5-5-5-9-9-9-9-9-9-9-9-12-12-12-12-12-12-12-12-|
|-5-5-5-5-5-5-5-5-9-9-9-9-9-9-9-9-12-12-12-12-12-12-12-12-|


|-------------|
|-------------|
|-------------|
|-2-2-2-2-2-4-|
|-2-2-2-2-2-4-|
|-2-2-2-2-2-4-|

|---------------------------------------------------------|
|---------------------------------------------------------|
|---------------------------------------------------------|
|-5-5-5-5-5-5-5-5-9-9-9-9-9-9-9-9-12-12-12-12-12-12-12-12-|
|-5-5-5-5-5-5-5-5-9-9-9-9-9-9-9-9-12-12-12-12-12-12-12-12-|
|-5-5-5-5-5-5-5-5-9-9-9-9-9-9-9-9-12-12-12-12-12-12-12-12-|


|---
|---
|---
|-2-
|-2-
|-2-

chorus

|----
|15t-
|----
|----
|----
|----
|
|----
|----
|----
|-12-
|-12-
|-12-


|-----------------------------------------------------------------|
|19t-----------------------------17t------------------------------|
|-----------------------------------------------------------------|
|-----------------------------------------------------------------|
|-----------------------------------------------------------------|
|-----------------------------------------------------------------|
|
|-----------------------------------------------------------------|
|-----------------------------------------------------------------|
|-----------------------------------------------------------------|
|-9-9-9-9-9-9-9-9-9-9-9-9-9-9-9-9-7-7-7-7-7-7-7-7-7-7-7-7-7-7-7-7-|
|-9-9-9-9-9-9-9-9-9-9-9-9-9-9-9-9-7-7-7-7-7-7-7-7-7-7-7-7-7-7-7-7-|
|-9-9-9-9-9-9-9-9-9-9-9-9-9-9-9-9-7-7-7-7-7-7-7-7-7-7-7-7-7-7-7-7-|


|-------------------------------------------------------------------------|
|15t----------------------------------------------------------------------|
|-------------------------------------------------------------------------|
|-------------------------------------------------------------------------|
|-------------------------------------------------------------------------|
|-------------------------------------------------------------------------|
|
|-------------------------------------------------------------------------|
|-------------------------------------------------------------------------|
|-------------------------------------------------------------------------|
|-12-12-12-12-12-12-12-12-12-12-12-12-12-12-12-12-12-12-12-12-12-12-12-12-|
|-12-12-12-12-12-12-12-12-12-12-12-12-12-12-12-12-12-12-12-12-12-12-12-12-|
|-12-12-12-12-12-12-12-12-12-12-12-12-12-12-12-12-12-12-12-12-12-12-12-12-|


|-----------------------------------------------------------------|
|19t-----------------------------17t------------------------------|
|-----------------------------------------------------------------|
|-----------------------------------------------------------------|
|-----------------------------------------------------------------|
|-----------------------------------------------------------------|
|
|-----------------------------------------------------------------|
|-----------------------------------------------------------------|
|-----------------------------------------------------------------|
|-9-9-9-9-9-9-9-9-9-9-9-9-9-9-9-9-7-7-7-7-7-7-7-7-7-7-7-7-7-7-7-7-|
|-9-9-9-9-9-9-9-9-9-9-9-9-9-9-9-9-7-7-7-7-7-7-7-7-7-7-7-7-7-7-7-7-|
|-9-9-9-9-9-9-9-9-9-9-9-9-9-9-9-9-7-7-7-7-7-7-7-7-7-7-7-7-7-7-7-7-|

|-----------------------------------------------------------------|
|15t--------------------------------------------------------------|
|-----------------------------------------------------------------|
|-----------------------------------------------------------------|
|-----------------------------------------------------------------|
|-----------------------------------------------------------------|
|
|-----------------------------------------------------------------|
|-----------------------------------------------------------------|
|-----------------------------------------------------------------|
|-5-5-5-5-5-5-5-5-5-5-5-5-5-5-5-5-7-7-7-7-7-7-7-7-7-7-7-7-7-7-7-7-|
|-5-5-5-5-5-5-5-5-5-5-5-5-5-5-5-5-7-7-7-7-7-7-7-7-7-7-7-7-7-7-7-7-|
|-5-5-5-5-5-5-5-5-5-5-5-5-5-5-5-5-7-7-7-7-7-7-7-7-7-7-7-7-7-7-7-7-|



|-----------------------------------------------------------------|
|19t-----------------------------17t------------------------------|
|-----------------------------------------------------------------|
|-----------------------------------------------------------------|
|-----------------------------------------------------------------|
|-----------------------------------------------------------------|
|
|-----------------------------------------------------------------|
|-----------------------------------------------------------------|
|-----------------------------------------------------------------|
|-9-9-9-9-9-9-9-9-9-9-9-9-9-9-9-9-7-7-7-7-7-7-7-7-7-7-7-7-7-7-7-7-|
|-9-9-9-9-9-9-9-9-9-9-9-9-9-9-9-9-7-7-7-7-7-7-7-7-7-7-7-7-7-7-7-7-|
|-9-9-9-9-9-9-9-9-9-9-9-9-9-9-9-9-7-7-7-7-7-7-7-7-7-7-7-7-7-7-7-7-|


|-----------------------------------------------------------------|
|15t--------------------------------------------------------------|
|-----------------------------------------------------------------|
|-----------------------------------------------------------------|
|-----------------------------------------------------------------|
|-----------------------------------------------------------------|
|
|-----------------------------------------------------------------|
|-----------------------------------------------------------------|
|-----------------------------------------------------------------|
|-5-5-5-5-5-5-5-5-5-5-5-5-5-5-5-5-7-7-7-7-7-7-7-7-7-7-7-7-7-7-7-7-|
|-5-5-5-5-5-5-5-5-5-5-5-5-5-5-5-5-7-7-7-7-7-7-7-7-7-7-7-7-7-7-7-7-|
|-5-5-5-5-5-5-5-5-5-5-5-5-5-5-5-5-7-7-7-7-7-7-7-7-7-7-7-7-7-7-7-7-|



|---
|---
|---
|-9-
|-9-
|-9-




|----------------------------------------------------|
|-14-12----------------------------------------------|
|----------------------------------------------------|
|----------------------------------------------------|
|----------------------------------------------------|
|----------------------------------------------------|
|
|----------------------------------------------------|
|----------------------------------------------------|
|----------------------------------------------------|
|-7--5-----------------------------------------------|
|-7--5-----------------------------------------------|
|-7--5-----------------------------------------------|

|----------------------------------------------------------------------|
|----------------------------------------------------------------------|
|----------------------------------------------------------------------|
|------9-9-9-9-9-9-9-9-9-9-9-9-9-9-9-9-7-7-7-7-7-7-7-7-7-7-7-7-7-7-7-7-|
|------9-9-9-9-9-9-9-9-9-9-9-9-9-9-9-9-7-7-7-7-7-7-7-7-7-7-7-7-7-7-7-7-|
|------9-9-9-9-9-9-9-9-9-9-9-9-9-9-9-9-7-7-7-7-7-7-7-7-7-7-7-7-7-7-7-7-|


|-----------------------------------------------------------------|
|-----------------------------------------------------------------|
|-----------------------------------------------------------------|
|-5-5-5-5-5-5-5-5-5-5-5-5-5-5-5-5-7-7-7-7-7-7-7-7-7-7-7-7-7-7-7-7-|
|-5-5-5-5-5-5-5-5-5-5-5-5-5-5-5-5-7-7-7-7-7-7-7-7-7-7-7-7-7-7-7-7-|
|-5-5-5-5-5-5-5-5-5-5-5-5-5-5-5-5-7-7-7-7-7-7-7-7-7-7-7-7-7-7-7-7-|


|---
|---
|---
|-9-
|-9-
|-9-



9. Revenge (drop c)


intro

|----------------------------------------------------------------------------------------|
|----------------------------------------------------------------------------------------|
|----------------------------------------------------------------------------------------|
|----------------------------------------------------------------------------------------|
|-8-7-5-7-8-7-5-7-8-7-5--8-7-5-7-8-7-5-7-8-7--8-7-5-7-8-7-5-7-8-7-5--8-7-5-7-8-7-5-7-8-5-|
|-0-0-0-0-0-0-0-0-0-0-0--0-0-0-0-0-0-0-0-0-0--0-0-0-0-0-0-0-0-0-0-0--0-0-0-0-0-0-0-0-0-0-|

verse 1

|----------------------------------------------------------------------------------------|
|----------------------------------------------------------------------------------------|
|-5-----7------9--------7----------12----7-----------------------------------------------|
|----------------------------------------------------------------------------------------|
|-3-----5------7--------5----------10----5-----------------------------------------------|
|----------------------------------------0-----------------------------------------------|
|
|----------------------------------------------------------------------------------------|
|----------------------------------------------------------------------------------------|
|----------------------------------------------------------------------------------------|
|----------------------------------------------------------------------------------------|
|-8-7-5-7-8-7-5-7-8-7-5--8-7-5-7-8-7-5-7-8-7--8-7-5-7-8-7-5-7-8-7-5--8-7-5-7-8-7-5-7-8-5-|
|-0-0-0-0-0-0-0-0-0-0-0--0-0-0-0-0-0-0-0-0-0--0-0-0-0-0-0-0-0-0-0-0--0-0-0-0-0-0-0-0-0-0-|




|----------------------------------------------------------------------------------------|
|----------------------------------------------------------------------------------------|
|-5------7--------9-------7------9------17-----------------------------------------------|
|----------------------------------------------------------------------------------------|
|-3------5--------7-------5------7------15-----------------------------------------------|
|----------------------------------------------------------------------------------------|
|
|----------------------------------------------------------------------------------------|
|----------------------------------------------------------------------------------------|
|----------------------------------------------------------------------------------------|
|----------------------------------------------------------------------------------------|
|-8-7-5-7-8-7-5-7-8-7-5--8-7-5-7-8-7-5-7-8-7--8-7-5-7-8-7-5-7-8-7-5--8-7-5-7-8-7-5-7-8-5-|
|-0-0-0-0-0-0-0-0-0-0-0--0-0-0-0-0-0-0-0-0-0--0-0-0-0-0-0-0-0-0-0-0--0-0-0-0-0-0-0-0-0-0-|




|----------------------------------------------------------------------------------------|
|----------------------------------------------------------------------------------------|
|-12--------10------9------7-----7------9----12-------10-------9------7------------------|
|----------------------------------------------------------------------------------------|
|-10--------8-------7------5-----5------7----10-------8--------7------5------------------|
|----------------------------------------------------------------------------------------|
|
|----------------------------------------------------------------------------------------|
|----------------------------------------------------------------------------------------|
|----------------------------------------------------------------------------------------|
|----------------------------------------------------------------------------------------|
|-8-7-5-7-8-7-5-7-8-7-5--8-7-5-7-8-7-5-7-8-7--8-7-5-7-8-7-5-7-8-7-5--8-7-5-7-8-7-5-7-8-5-|
|-0-0-0-0-0-0-0-0-0-0-0--0-0-0-0-0-0-0-0-0-0--0-0-0-0-0-0-0-0-0-0-0--0-0-0-0-0-0-0-0-0-0-|

chorus
( a really distorted guitar plays one of each of these as well)

|-----------------------------------------------------------------|
|-----------------------------------------------------------------|
|-15-----------------------------14-----------------------17------|
|-----------------------------------------------------------------|
|-----------------------------------------------------------------|
|-----------------------------------------------------------------|
|
|-----------------------------------------------------------------|
|-----------------------------------------------------------------|
|-----------------------------------------------------------------|
|-8-8-8-8-8-8-8-8-8-8-8-8-8-8-8-8-0-0-0-0-0-0-0-0-0-0-0-0-0-0-0-0-|
|-8-8-8-8-8-8-8-8-8-8-8-8-8-8-8-8-0-0-0-0-0-0-0-0-0-0-0-0-0-0-0-0-|
|-8-8-8-8-8-8-8-8-8-8-8-8-8-8-8-8-0-0-0-0-0-0-0-0-0-0-0-0-0-0-0-0-|


|---------------------------------------------------------------------------------|
|---------------------------------------------------------------------------------|
|-12------------------------------9-----------------------------------------------|
|---------------------------------------------------------------------------------|
|---------------------------------------------------------------------------------|
|---------------------------------------------------------------------------------|
|
|---------------------------------------------------------------------------------|
|---------------------------------------------------------------------------------|
|---------------------------------------------------------------------------------|
|-3-3-3-3-3-3-3-3-3-3-3-3-3-3-3-3-10-10-10-10-10-10-10-10-10-10-10-10-10-10-10-10-|
|-3-3-3-3-3-3-3-3-3-3-3-3-3-3-3-3-10-10-10-10-10-10-10-10-10-10-10-10-10-10-10-10-|
|-3-3-3-3-3-3-3-3-3-3-3-3-3-3-3-3-10-10-10-10-10-10-10-10-10-10-10-10-10-10-10-10-|

verse 2


|----------------------------------------------------------------------------------------|
|----------------------------------------------------------------------------------------|
|----------------------------------------------------------------------------------------|
|----------------------------------------------------------------------------------------|
|-8-7-5-7-8-7-5-7-8-7-5--8-7-5-7-8-7-5-7-8-7--8-7-5-7-8-7-5-7-8-7-5--8-7-5-7-8-7-5-7-8-5-|
|-0-0-0-0-0-0-0-0-0-0-0--0-0-0-0-0-0-0-0-0-0--0-0-0-0-0-0-0-0-0-0-0--0-0-0-0-0-0-0-0-0-0-|


|----------------------------------------------------------------------------------------|
|----------------------------------------------------------------------------------------|
|-15-------------14------12---------7----------------------------------------------------|
|----------------------------------------------------------------------------------------|
|-13-------------12------10---------5----------------------------------------------------|
|----------------------------------------------------------------------------------------|
|
|----------------------------------------------------------------------------------------|
|----------------------------------------------------------------------------------------|
|----------------------------------------------------------------------------------------|
|----------------------------------------------------------------------------------------|
|-8-7-5-7-8-7-5-7-8-7-5--8-7-5-7-8-7-5-7-8-7--8-7-5-7-8-7-5-7-8-7-5--8-7-5-7-8-7-5-7-8-5-|
|-0-0-0-0-0-0-0-0-0-0-0--0-0-0-0-0-0-0-0-0-0--0-0-0-0-0-0-0-0-0-0-0--0-0-0-0-0-0-0-0-0-0-|

chorus

|-----------------------------------------------------------------|
|-----------------------------------------------------------------|
|-15-----------------------------14-----------------------17------|
|-----------------------------------------------------------------|
|-----------------------------------------------------------------|
|-----------------------------------------------------------------|
|
|-----------------------------------------------------------------|
|-----------------------------------------------------------------|
|-----------------------------------------------------------------|
|-8-8-8-8-8-8-8-8-8-8-8-8-8-8-8-8-0-0-0-0-0-0-0-0-0-0-0-0-0-0-0-0-|
|-8-8-8-8-8-8-8-8-8-8-8-8-8-8-8-8-0-0-0-0-0-0-0-0-0-0-0-0-0-0-0-0-|
|-8-8-8-8-8-8-8-8-8-8-8-8-8-8-8-8-0-0-0-0-0-0-0-0-0-0-0-0-0-0-0-0-|


|---------------------------------------------------------------------------------|
|---------------------------------------------------------------------------------|
|-12------------------------------9-----------------------------------------------|
|---------------------------------------------------------------------------------|
|---------------------------------------------------------------------------------|
|---------------------------------------------------------------------------------|
|
|---------------------------------------------------------------------------------|
|---------------------------------------------------------------------------------|
|---------------------------------------------------------------------------------|
|-3-3-3-3-3-3-3-3-3-3-3-3-3-3-3-3-10-10-10-10-10-10-10-10-10-10-10-10-10-10-10-10-|
|-3-3-3-3-3-3-3-3-3-3-3-3-3-3-3-3-10-10-10-10-10-10-10-10-10-10-10-10-10-10-10-10-|
|-3-3-3-3-3-3-3-3-3-3-3-3-3-3-3-3-10-10-10-10-10-10-10-10-10-10-10-10-10-10-10-10-|

|-----------------------------------------------------------------|
|-----------------------------------------------------------------|
|-15-----------------------------14-----------------------17------|
|-----------------------------------------------------------------|
|-----------------------------------------------------------------|
|-----------------------------------------------------------------|
|
|-----------------------------------------------------------------|
|-----------------------------------------------------------------|
|-----------------------------------------------------------------|
|-8-8-8-8-8-8-8-8-8-8-8-8-8-8-8-8-0-0-0-0-0-0-0-0-0-0-0-0-0-0-0-0-|
|-8-8-8-8-8-8-8-8-8-8-8-8-8-8-8-8-0-0-0-0-0-0-0-0-0-0-0-0-0-0-0-0-|
|-8-8-8-8-8-8-8-8-8-8-8-8-8-8-8-8-0-0-0-0-0-0-0-0-0-0-0-0-0-0-0-0-|


|---------------------------------------------------------------------------------|
|---------------------------------------------------------------------------------|
|-12------------------------------9-----------------------------------------------|
|---------------------------------------------------------------------------------|
|---------------------------------------------------------------------------------|
|---------------------------------------------------------------------------------|
|
|---------------------------------------------------------------------------------|
|---------------------------------------------------------------------------------|
|---------------------------------------------------------------------------------|
|-3-3-3-3-3-3-3-3-3-3-3-3-3-3-3-3-10-10-10-10-10-10-10-10-10-10-10-10-10-10-10-10-|
|-3-3-3-3-3-3-3-3-3-3-3-3-3-3-3-3-10-10-10-10-10-10-10-10-10-10-10-10-10-10-10-10-|
|-3-3-3-3-3-3-3-3-3-3-3-3-3-3-3-3-10-10-10-10-10-10-10-10-10-10-10-10-10-10-10-10-|


|-----------------------------------------------------------------|
|-----------------------------------------------------------------|
|-15-----------------------------14-------------------------------|
|-----------------------------------------------------------------|
|-----------------------------------------------------------------|
|-----------------------------------------------------------------|
|
|-----------------------------------------------------------------|
|-----------------------------------------------------------------|
|-----------------------------------------------------------------|
|-8-8-8-8-8-8-8-8-8-8-8-8-8-8-8-8-0-0-0-0-0-0-0-0-0-0-0-0-0-0-0-0-|
|-8-8-8-8-8-8-8-8-8-8-8-8-8-8-8-8-0-0-0-0-0-0-0-0-0-0-0-0-0-0-0-0-|
|-8-8-8-8-8-8-8-8-8-8-8-8-8-8-8-8-0-0-0-0-0-0-0-0-0-0-0-0-0-0-0-0-|


|---------------------------------------------------------------------------------|
|---------------------------------------------------------------------------------|
|-12------------------------------9-----------------------------------------------|
|---------------------------------------------------------------------------------|
|---------------------------------------------------------------------------------|
|---------------------------------------------------------------------------------|
|
|---------------------------------------------------------------------------------|
|---------------------------------------------------------------------------------|
|---------------------------------------------------------------------------------|
|-3-3-3-3-3-3-3-3-3-3-3-3-3-3-3-3-10-10-10-10-10-10-10-10-10-10-10-10-10-10-10-10-|
|-3-3-3-3-3-3-3-3-3-3-3-3-3-3-3-3-10-10-10-10-10-10-10-10-10-10-10-10-10-10-10-10-|
|-3-3-3-3-3-3-3-3-3-3-3-3-3-3-3-3-10-10-10-10-10-10-10-10-10-10-10-10-10-10-10-10-|


|-----------------------------------------------------------------|
|-----------------------------------------------------------------|
|-15-----------------------------14-------------------------------|
|-----------------------------------------------------------------|
|-----------------------------------------------------------------|
|-----------------------------------------------------------------|
|
|-----------------------------------------------------------------|
|-----------------------------------------------------------------|
|-----------------------------------------------------------------|
|-8-8-8-8-8-8-8-8-8-8-8-8-8-8-8-8-0-0-0-0-0-0-0-0-0-0-0-0-0-0-0-0-|
|-8-8-8-8-8-8-8-8-8-8-8-8-8-8-8-8-0-0-0-0-0-0-0-0-0-0-0-0-0-0-0-0-|
|-8-8-8-8-8-8-8-8-8-8-8-8-8-8-8-8-0-0-0-0-0-0-0-0-0-0-0-0-0-0-0-0-|


|---------------------------------------------------------------------------------|
|---------------------------------------------------------------------------------|
|-12------------------------------9-----------------------------------------------|
|---------------------------------------------------------------------------------|
|---------------------------------------------------------------------------------|
|---------------------------------------------------------------------------------|
|
|---------------------------------------------------------------------------------|
|---------------------------------------------------------------------------------|
|---------------------------------------------------------------------------------|
|-3-3-3-3-3-3-3-3-3-3-3-3-3-3-3-3-10-10-10-10-10-10-10-10-10-10-10-10-10-10-10-10-|
|-3-3-3-3-3-3-3-3-3-3-3-3-3-3-3-3-10-10-10-10-10-10-10-10-10-10-10-10-10-10-10-10-|
|-3-3-3-3-3-3-3-3-3-3-3-3-3-3-3-3-10-10-10-10-10-10-10-10-10-10-10-10-10-10-10-10-|


interlude?

|----------------------------------------------------------------------------------------|
|----------------------------------------------------------------------------------------|
|----------------------------------15--14---------15----14------12---------9-------------|
|----------------------------------------------------------------------------------------|
|----------------------------------------------------------------------------------------|
|----------------------------------------------------------------------------------------|
|
|----------------------------------------------------------------------------------------|
|----------------------------------------------------------------------------------------|
|----------------------------------------------------------------------------------------|
|----------------------------------------------------------------------------------------|
|-8-7-5-7-8-7-5-7-8-7-5--8-7-5-7-8-7-5-7-8-7--8-7-5-7-8-7-5-7-8-7-5--8-7-5-7-8-7-5-7-8-5-|
|-0-0-0-0-0-0-0-0-0-0-0--0-0-0-0-0-0-0-0-0-0--0-0-0-0-0-0-0-0-0-0-0--0-0-0-0-0-0-0-0-0-0-|



|----------------------------------------------------------------------------------------|
|----------------------------------------------------------------------------------------|
|----------------------------------------------------------------------------------------|
|-9---------------12----------------15------14-------------------------------------------|
|----------------------------------------------------------------------------------------|
|----------------------------------------------------------------------------------------|
|
|----------------------------------------------------------------------------------------|
|----------------------------------------------------------------------------------------|
|----------------------------------------------------------------------------------------|
|----------------------------------------------------------------------------------------|
|-8-7-5-7-8-7-5-7-8-7-5--8-7-5-7-8-7-5-7-8-7--8-7-5-7-8-7-5-7-8-7-5--5-5-5-5-5-5-5-5-----|
|-0-0-0-0-0-0-0-0-0-0-0--0-0-0-0-0-0-0-0-0-0--0-0-0-0-0-0-0-0-0-0-0--0-0-0-0-0-0-0-0-----|

chorus

|-----------------------------------------------------------------|
|-----------------------------------------------------------------|
|-15-----------------------------14-----------------------17------|
|-----------------------------------------------------------------|
|-----------------------------------------------------------------|
|-----------------------------------------------------------------|
|
|-----------------------------------------------------------------|
|-----------------------------------------------------------------|
|-----------------------------------------------------------------|
|-8-8-8-8-8-8-8-8-8-8-8-8-8-8-8-8-0-0-0-0-0-0-0-0-0-0-0-0-0-0-0-0-|
|-8-8-8-8-8-8-8-8-8-8-8-8-8-8-8-8-0-0-0-0-0-0-0-0-0-0-0-0-0-0-0-0-|
|-8-8-8-8-8-8-8-8-8-8-8-8-8-8-8-8-0-0-0-0-0-0-0-0-0-0-0-0-0-0-0-0-|


|---------------------------------------------------------------------------------|
|---------------------------------------------------------------------------------|
|-12------------------------------9-----------------------------------------------|
|---------------------------------------------------------------------------------|
|---------------------------------------------------------------------------------|
|---------------------------------------------------------------------------------|
|
|---------------------------------------------------------------------------------|
|---------------------------------------------------------------------------------|
|---------------------------------------------------------------------------------|
|-3-3-3-3-3-3-3-3-3-3-3-3-3-3-3-3-10-10-10-10-10-10-10-10-10-10-10-10-10-10-10-10-|
|-3-3-3-3-3-3-3-3-3-3-3-3-3-3-3-3-10-10-10-10-10-10-10-10-10-10-10-10-10-10-10-10-|
|-3-3-3-3-3-3-3-3-3-3-3-3-3-3-3-3-10-10-10-10-10-10-10-10-10-10-10-10-10-10-10-10-|

|-----------------------------------------------------------------|
|-----------------------------------------------------------------|
|-15-----------------------------14-----------------------17------|
|-----------------------------------------------------------------|
|-----------------------------------------------------------------|
|-----------------------------------------------------------------|
|
|-----------------------------------------------------------------|
|-----------------------------------------------------------------|
|-----------------------------------------------------------------|
|-8-8-8-8-8-8-8-8-8-8-8-8-8-8-8-8-0-0-0-0-0-0-0-0-0-0-0-0-0-0-0-0-|
|-8-8-8-8-8-8-8-8-8-8-8-8-8-8-8-8-0-0-0-0-0-0-0-0-0-0-0-0-0-0-0-0-|
|-8-8-8-8-8-8-8-8-8-8-8-8-8-8-8-8-0-0-0-0-0-0-0-0-0-0-0-0-0-0-0-0-|


|---------------------------------------------------------------------------------|
|---------------------------------------------------------------------------------|
|-12------------------------------9-----------------------------------------------|
|---------------------------------------------------------------------------------|
|---------------------------------------------------------------------------------|
|---------------------------------------------------------------------------------|
|
|---------------------------------------------------------------------------------|
|---------------------------------------------------------------------------------|
|---------------------------------------------------------------------------------|
|-3-3-3-3-3-3-3-3-3-3-3-3-3-3-3-3-10-10-10-10-10-10-10-10-10-10-10-10-10-10-10-10-|
|-3-3-3-3-3-3-3-3-3-3-3-3-3-3-3-3-10-10-10-10-10-10-10-10-10-10-10-10-10-10-10-10-|
|-3-3-3-3-3-3-3-3-3-3-3-3-3-3-3-3-10-10-10-10-10-10-10-10-10-10-10-10-10-10-10-10-|


|-----------------------------------------------------------------|
|-----------------------------------------------------------------|
|-15-----------------------------14-------------------------------|
|-----------------------------------------------------------------|
|-----------------------------------------------------------------|
|-----------------------------------------------------------------|
|
|-----------------------------------------------------------------|
|-----------------------------------------------------------------|
|-----------------------------------------------------------------|
|-8-8-8-8-8-8-8-8-8-8-8-8-8-8-8-8-0-0-0-0-0-0-0-0-0-0-0-0-0-0-0-0-|
|-8-8-8-8-8-8-8-8-8-8-8-8-8-8-8-8-0-0-0-0-0-0-0-0-0-0-0-0-0-0-0-0-|
|-8-8-8-8-8-8-8-8-8-8-8-8-8-8-8-8-0-0-0-0-0-0-0-0-0-0-0-0-0-0-0-0-|


|---------------------------------------------------------------------------------|
|---------------------------------------------------------------------------------|
|-12------------------------------9-----------------------------------------------|
|---------------------------------------------------------------------------------|
|---------------------------------------------------------------------------------|
|---------------------------------------------------------------------------------|
|
|---------------------------------------------------------------------------------|
|---------------------------------------------------------------------------------|
|---------------------------------------------------------------------------------|
|-3-3-3-3-3-3-3-3-3-3-3-3-3-3-3-3-10-10-10-10-10-10-10-10-10-10-10-10-10-10-10-10-|
|-3-3-3-3-3-3-3-3-3-3-3-3-3-3-3-3-10-10-10-10-10-10-10-10-10-10-10-10-10-10-10-10-|
|-3-3-3-3-3-3-3-3-3-3-3-3-3-3-3-3-10-10-10-10-10-10-10-10-10-10-10-10-10-10-10-10-|


|-----------------------------------------------------------------|
|-----------------------------------------------------------------|
|-15-----------------------------14-------------------------------|
|-----------------------------------------------------------------|
|-----------------------------------------------------------------|
|-----------------------------------------------------------------|
|
|-----------------------------------------------------------------|
|-----------------------------------------------------------------|
|-----------------------------------------------------------------|
|-8-8-8-8-8-8-8-8-8-8-8-8-8-8-8-8-0-0-0-0-0-0-0-0-0-0-0-0-0-0-0-0-|
|-8-8-8-8-8-8-8-8-8-8-8-8-8-8-8-8-0-0-0-0-0-0-0-0-0-0-0-0-0-0-0-0-|
|-8-8-8-8-8-8-8-8-8-8-8-8-8-8-8-8-0-0-0-0-0-0-0-0-0-0-0-0-0-0-0-0-|


|---------------------------------------------------------------------------------|
|---------------------------------------------------------------------------------|
|-12------------------------------9-----------------------------------------------|
|---------------------------------------------------------------------------------|
|---------------------------------------------------------------------------------|
|---------------------------------------------------------------------------------|
|
|---------------------------------------------------------------------------------|
|---------------------------------------------------------------------------------|
|---------------------------------------------------------------------------------|
|-3-3-3-3-3-3-3-3-3-3-3-3-3-3-3-3-10-10-10-10-10-10-10-10-10-10-10-10-10-10-10-10-|
|-3-3-3-3-3-3-3-3-3-3-3-3-3-3-3-3-10-10-10-10-10-10-10-10-10-10-10-10-10-10-10-10-|
|-3-3-3-3-3-3-3-3-3-3-3-3-3-3-3-3-10-10-10-10-10-10-10-10-10-10-10-10-10-10-10-10-|

outro ( throw in a few 15's on the 3rd string for the first guitar here)

|----------------------------------------------------------------------------------------|
|----------------------------------------------------------------------------------------|
|----------------------------------------------------------------------------------------|
|----------------------------------------------------------------------------------------|
|-8-7-5-7-8-7-5-7-8-7-5--8-7-5-7-8-7-5-7-8-7--8-7-5-7-8-7-5-7-8-7-5--8-7-5-7-8-7-5-7-8-5-|
|-0-0-0-0-0-0-0-0-0-0-0--0-0-0-0-0-0-0-0-0-0--0-0-0-0-0-0-0-0-0-0-0--0-0-0-0-0-0-0-0-0-0-|


Lyrics:
Crowds and torches fill the air
surprise your chosen, now finish it
Yell it louder really sink that point in
that sat for so long
for so long
behind these civilized eyes
behind these civilized eyes
Me, I'd let the panic ride and pin it to the wall
Identifying pride is the saddest of chores
These burning eyes define a churning of the soul
Feel better to be lost, but haven't felt the choice
For so long
behind these civilized eyes
revenge
thats cold
thats cold
may your sources lead
Connecting to tenfold
indentify your own
fate has tortured us for far to long
for so long
my demons
its countdown for me
with blindfolds you held us
till i found the best revenge
for so long my demons
its countdown for me
with blindfoldsd you held us
till i found the best revenge


10. Prima Donna (drop b)

intro


|------------------------------------------------------------------------------------------------|
|------------------------------------------------------------------------------------------------|
|-14-14-12-14-15-14-12-14-14--14-14-14-12-12-12-11-11-11-11-11-11-11-11-11-11-11-11-11-11-11-11--|
|------------------------------------------------------------------------------------------------|
|-12-12-10-12-13-12-10-12-12--12-12-12-10-10-10-9--9--9--9--9--9--9--9--9--9--9--9--9--9--9--9---|
|------------------------------------------------------------------------------------------------|


|------------------------------------------------------------------------------------------------|
|------------------------------------------------------------------------------------------------|
|-14-14-12-14-15-14-12-14-14--14-14-14-12-12-12-11-11-11-11-11-11-11-11-11-11-11-11-11-11-11-11--|
|------------------------------------------------------------------------------------------------|
|-12-12-10-12-13-12-10-12-12--12-12-12-10-10-10-9--9--9--9--9--9--9--9--9--9--9--9--9--9--9--9---|
|------------------------------------------------------------------------------------------------|


verse

|-------------------------------------------------------------|
|-------------------------------------------------------------|
|-11-11-11-11-11-11-11-11-11-11-11-11-11-11-11-11-7-7-7-7-7-7-|
|-9--9--9--9--9--9--9--9--9--9--9--9--9--9--9--9--5-5-5-5-5-5-|
|-9--9--9--9--9--9--9--9--9--9--9--9--9--9--9--9--5-5-5-5-5-5-|
|-9--9--9--9--9--9--9--9--9--9--9--9--9--9--9--9--5-5-5-5-5-5-|

|------------|
|---3---2h3--|
|---2--------|
|-0-0-0-0----|
|-0-0-0------|
|-0---0------|

|-------------------------------------------------------------|
|-------------------------------------------------------------|
|-11-11-11-11-11-11-11-11-11-11-11-11-11-11-11-11-7-7-7-7-7-7-|
|-9--9--9--9--9--9--9--9--9--9--9--9--9--9--9--9--5-5-5-5-5-5-|
|-9--9--9--9--9--9--9--9--9--9--9--9--9--9--9--9--5-5-5-5-5-5-|
|-9--9--9--9--9--9--9--9--9--9--9--9--9--9--9--9--5-5-5-5-5-5-|

|------------------|
|------------------|
|-4-4-4-4-4-4-4-4--|
|-2-2-2-2-2-2-2-2--|
|-2-2-2-2-2-2-2-2--|
|-2-2-2-2-2-2-2-2--|

|-----------------------------------------------------------------|
|-----------------------------------------------------------------|
|-2-2-2-2-2-2-2-2-4-4-4-4-4-4-4-4-7-7-7-7-7-7-7-7-7-7-7-7-7-7-7-7-|
|-0-0-0-0-0-0-0-0-2-2-2-2-2-2-2-2-5-5-5-5-5-5-7-7-7-7-7-7-7-7-7-7-|
|-0-0-0-0-0-0-0-0-2-2-2-2-2-2-2-2-5-5-5-5-5-5-5-5-5-5-5-5-5-5-5-5-|
|-0-0-0-0-0-0-0-0-2-2-2-2-2-2-2-2-5-5-5-5-5-5---------------------|

|-----------------------------------------------------------------|
|-----------------------------------------------------------------|
|-2-2-2-2-2-2-2-2-4-4-4-4-4-4-4-4-7-7-7-7-7-7-7-7-7-7-7-7-7-7-7-7-|
|-0-0-0-0-0-0-0-0-2-2-2-2-2-2-2-2-5-5-5-5-5-5-7-7-7-7-7-7-7-7-7-7-|
|-0-0-0-0-0-0-0-0-2-2-2-2-2-2-2-2-5-5-5-5-5-5-5-5-5-5-5-5-5-5-5-5-|
|-0-0-0-0-0-0-0-0-2-2-2-2-2-2-2-2-5-5-5-5-5-5---------------------|


Chorus


|--------------------------------------------------------------|
|--------------------------------------------------------------|
|-11-11-9-9-7-7-7-7-7-7-7-7-7-7--11-11-9-9-7-7-7-7-7-7-7-7-7-7-|
|-9--9--7-7-5-5-5-5-5-5-5-5-5-5--9--9--7-7-5-5-5-5-5-5-5-5-5-5-|
|-9--9--7-7-5-5-5-5-5-5-5-5-5-5--9--9--7-7-5-5-5-5-5-5-5-5-5-5-|
|-9--9--7-7-5-5-5-5-5-5-5-5-5-5--9--9--7-7-5-5-5-5-5-5-5-5-5-5-|

|------------------------------------------------------|
|------------------------------------------------------|
|-14-14-9-9-7-7-7-7-7-7-7-7-7-7--11-11-9-9-7-----------|
|-12-12-7-7-5-5-5-5-5-5-5-5-5-5--9--9--7-7-5-5-5-5-5-5-|
|-12-12-7-7-5-5-5-5-5-5-5-5-5-5--9--9--7-7-5-5-5-5-5-5-|
|-12-12-7-7-5-5-5-5-5-5-5-5-5-5--9--9--7-7-5-5-5-5-5-5-|

preverse


|------------------------------------------------------------------------------------------------|
|------------------------------------------------------------------------------------------------|
|-14-14-12-14-15-14-12-14-14--14-14-14-12-12-12-11-11-11-11-11-11-11-11-11-11-11-11-11-11-11-11--|
|------------------------------------------------------------------------------------------------|
|-12-12-10-12-13-12-10-12-12--12-12-12-10-10-10-9--9--9--9--9--9--9--9--9--9--9--9--9--9--9--9---|
|------------------------------------------------------------------------------------------------|


|------------------------------------------------------------------------------------------------|
|------------------------------------------------------------------------------------------------|
|-14-14-12-14-15-14-12-14-14--14-14-14-12-12-12-11-11-11-11-11-11-11-11-11-11-11-11-11-11-11-11--|
|------------------------------------------------------------------------------------------------|
|-12-12-10-12-13-12-10-12-12--12-12-12-10-10-10-9--9--9--9--9--9--9--9--9--9--9--9--9--9--9--9---|
|------------------------------------------------------------------------------------------------|

verse

|-------------------------------------------------------------|
|-------------------------------------------------------------|
|-11-11-11-11-11-11-11-11-11-11-11-11-11-11-11-11-7-7-7-7-7-7-|
|-9--9--9--9--9--9--9--9--9--9--9--9--9--9--9--9--5-5-5-5-5-5-|
|-9--9--9--9--9--9--9--9--9--9--9--9--9--9--9--9--5-5-5-5-5-5-|
|-9--9--9--9--9--9--9--9--9--9--9--9--9--9--9--9--5-5-5-5-5-5-|

|------------|
|---3---2h3--|
|---2--------|
|-0-0-0-0----|
|-0-0-0------|
|-0---0------|

|-------------------------------------------------------------|
|-------------------------------------------------------------|
|-11-11-11-11-11-11-11-11-11-11-11-11-11-11-11-11-7-7-7-7-7-7-|
|-9--9--9--9--9--9--9--9--9--9--9--9--9--9--9--9--5-5-5-5-5-5-|
|-9--9--9--9--9--9--9--9--9--9--9--9--9--9--9--9--5-5-5-5-5-5-|
|-9--9--9--9--9--9--9--9--9--9--9--9--9--9--9--9--5-5-5-5-5-5-|

|------------------|
|------------------|
|-4-4-4-4-4-4-4-4--|
|-2-2-2-2-2-2-2-2--|
|-2-2-2-2-2-2-2-2--|
|-2-2-2-2-2-2-2-2--|

|-----------------------------------------------------------------|
|-----------------------------------------------------------------|
|-2-2-2-2-2-2-2-2-4-4-4-4-4-4-4-4-7-7-7-7-7-7-7-7-7-7-7-7-7-7-7-7-|
|-0-0-0-0-0-0-0-0-2-2-2-2-2-2-2-2-5-5-5-5-5-5-7-7-7-7-7-7-7-7-7-7-|
|-0-0-0-0-0-0-0-0-2-2-2-2-2-2-2-2-5-5-5-5-5-5-5-5-5-5-5-5-5-5-5-5-|
|-0-0-0-0-0-0-0-0-2-2-2-2-2-2-2-2-5-5-5-5-5-5---------------------|

|-----------------------------------------------------------------|
|-----------------------------------------------------------------|
|-2-2-2-2-2-2-2-2-4-4-4-4-4-4-4-4-7-7-7-7-7-7-7-7-7-7-7-7-7-7-7-7-|
|-0-0-0-0-0-0-0-0-2-2-2-2-2-2-2-2-5-5-5-5-5-5-7-7-7-7-7-7-7-7-7-7-|
|-0-0-0-0-0-0-0-0-2-2-2-2-2-2-2-2-5-5-5-5-5-5-5-5-5-5-5-5-5-5-5-5-|
|-0-0-0-0-0-0-0-0-2-2-2-2-2-2-2-2-5-5-5-5-5-5---------------------|

Chorus


|--------------------------------------------------------------|
|--------------------------------------------------------------|
|-11-11-9-9-7-7-7-7-7-7-7-7-7-7--11-11-9-9-7-7-7-7-7-7-7-7-7-7-|
|-9--9--7-7-5-5-5-5-5-5-5-5-5-5--9--9--7-7-5-5-5-5-5-5-5-5-5-5-|
|-9--9--7-7-5-5-5-5-5-5-5-5-5-5--9--9--7-7-5-5-5-5-5-5-5-5-5-5-|
|-9--9--7-7-5-5-5-5-5-5-5-5-5-5--9--9--7-7-5-5-5-5-5-5-5-5-5-5-|

|----------------------------------------------------------------|
|----------------------------------------------------------------|
|-14-14-9-9-7-7-7-7-7-7-7-7-7-7--11-11-9-9-7---------------------|
|-12-12-7-7-5-5-5-5-5-5-5-5-5-5--9--9--7-7-5-5-5-5-5-5-5-5-5-7-7-|
|-12-12-7-7-5-5-5-5-5-5-5-5-5-5--9--9--7-7-5-5-5-5-5-5-5-5-5-7-7-|
|-12-12-7-7-5-5-5-5-5-5-5-5-5-5--9--9--7-7-5-5-5-5-5-5-5-5-5-7-7-|



interlude

|-------------------------------------------------|
|-------------------------------------------------|
|-7-7-7-7-7-7-7-7-7-7-7-7-7-7-7-7-7-7-------------|
|-5-5-5-5-5-5-5-5-5-5-5-5-7-7-7-7-7-7-7-7-7-7-7-7-|
|-5-5-5-5-5-5-5-5-5-5-5-5-5-5-5-5-5-5-7-7-7-7-7-7-|
|-5-5-5-5-5-5-5-5-5-5-5-5-------------7-7-7-7-7-7-|

|-------------------------------------------------|
|-------------------------------------------------|
|-7-7-7-7-7-7-7-7-7-7-7-7-7-7-7-7-7-7-------------|
|-5-5-5-5-5-5-5-5-5-5-5-5-7-7-7-7-7-7-7-7-7-7-7-7-|
|-5-5-5-5-5-5-5-5-5-5-5-5-5-5-5-5-5-5-7-7-7-7-7-7-|
|-5-5-5-5-5-5-5-5-5-5-5-5-------------7-7-7-7-7-7-|

|-------------------------------------------------|
|-------------------------------------------------|
|-7-7-7-7-7-7-7-7-7-7-7-7-7-7-7-7-7-7-------------|
|-5-5-5-5-5-5-5-5-5-5-5-5-7-7-7-7-7-7-7-7-7-7-7-7-|
|-5-5-5-5-5-5-5-5-5-5-5-5-5-5-5-5-5-5-7-7-7-7-7-7-|
|-5-5-5-5-5-5-5-5-5-5-5-5-------------7-7-7-7-7-7-|

|-------------------------------------------------|
|-------------------------------------------------|
|-7-7-7-7-7-7-7-7-7-7-7-7-7-7-7-7-7-7-------------|
|-5-5-5-5-5-5-5-5-5-5-5-5-7-7-7-7-7-7-7-7-7-7-7-7-|
|-5-5-5-5-5-5-5-5-5-5-5-5-5-5-5-5-5-5-7-7-7-7-7-7-|
|-5-5-5-5-5-5-5-5-5-5-5-5-------------7-7-7-7-7-7-|


Chorus


|--------------------------------------------------------------|
|--------------------------------------------------------------|
|-11-11-9-9-7-7-7-7-7-7-7-7-7-7--11-11-9-9-7-7-7-7-7-7-7-7-7-7-|
|-9--9--7-7-5-5-5-5-5-5-5-5-5-5--9--9--7-7-5-5-5-5-5-5-5-5-5-5-|
|-9--9--7-7-5-5-5-5-5-5-5-5-5-5--9--9--7-7-5-5-5-5-5-5-5-5-5-5-|
|-9--9--7-7-5-5-5-5-5-5-5-5-5-5--9--9--7-7-5-5-5-5-5-5-5-5-5-5-|

|------------------------------------------------------------------|
|------------------------------------------------------------------|
|-14-14-9-9-7-7-7-7-7-7-7-7-7-7--11-11-9-9-7-----------------------|
|-12-12-7-7-5-5-5-5-5-5-5-5-5-5--9--9--7-7-5-5-5-5-5-5-5-5-5-7-7-5-|
|-12-12-7-7-5-5-5-5-5-5-5-5-5-5--9--9--7-7-5-5-5-5-5-5-5-5-5-7-7-5-|
|-12-12-7-7-5-5-5-5-5-5-5-5-5-5--9--9--7-7-5-5-5-5-5-5-5-5-5-7-7-5-|


11. Clones (drop C)


distortion
|---------------------------------------------------------------------------------|
|---------------------------------------------------------------------------------|
|---------------------------------10-10-10-10-10-10-10-10-------------------------|
|-0-0-0-0-0-0-0-0-8-8-8-8-8-8-8-8-10-10-10-10-10-10-10-10-10-10-10-10-10-10-10-10-|
|-0-0-0-0-0-0-0-0-8-8-8-8-8-8-8-8-8--8--8--8--8--8--8--8--10-10-10-10-10-10-10-10-|
|-0-0-0-0-0-0-0-0-8-8-8-8-8-8-8-8-------------------------10-10-10-10-10-10-10-10-|



|-----------------------------------------------------------------|
|-----------------------------------------------------------------|
|-----------------------------------------------------------------|
|-0-0-0-0-0-0-0-0-8-8-8-8-8-8-8-8-3-3-3-3-3-3-3-3-5-5-5-5-5-5-5-5-|
|-0-0-0-0-0-0-0-0-8-8-8-8-8-8-8-8-3-3-3-3-3-3-3-3-5-5-5-5-5-5-5-5-|
|-0-0-0-0-0-0-0-0-8-8-8-8-8-8-8-8-3-3-3-3-3-3-3-3-5-5-5-5-5-5-5-5-|


not so distortion
|-----------------------------------------------------------------|
|-----------------------------------------------------------------|
|-----------------------------------------10-10-10-10-10-10-10-10-|
|-------------------------8-8-8-8-8-8-8-8-10-10-10-10-10-10-10-10-|
|-12-12-12-12-12-12-12-12-8-8-8-8-8-8-8-8-8--8--8--8--8--8--8--8--|
|-0--0--0--0--0--0--0--0--8-8-8-8-8-8-8-8-------------------------|



|--------------------------------------------------|
|--------------------------------------------------|
|--------------------------------------------------|
|-10-10-10-10-10-10-10-10--------------------------|
|-10-10-10-10-10-10-10-10-12-12-12-12-12-12-12-12--|
|-10-10-10-10-10-10-10-10-0--0--0--0--0--0--0--0---|



|-------------------------------------------------|
|-------------------------------------------------|
|-------------------------------------------------|
|-8-8-8-8-8-8-8-8-3-3-3-3-3-3-3-3-5-5-5-5-5-5-5-5-|
|-8-8-8-8-8-8-8-8-3-3-3-3-3-3-3-3-5-5-5-5-5-5-5-5-|
|-8-8-8-8-8-8-8-8-3-3-3-3-3-3-3-3-5-5-5-5-5-5-5-5-|


|-----------------------------------------------------------------------------|
|-----------------------------------------------------------------------------|
|-----------------------------10-10-10-10-10-10-10-10-------------------------|
|-------------8-8-8-8-8-8-8-8-10-10-10-10-10-10-10-10-10-10-10-10-10-10-10-10-|
|-12-13-12-10-8-8-8-8-8-8-8-8-8--8--8--8--8--8--8--8--10-10-10-10-10-10-10-10-|
|-0--0--0--0--8-8-8-8-8-8-8-8-------------------------10-10-10-10-10-10-10-10-|



|-------------------------------------------------------------------------|
|-------------------------------------------------------------------------|
|-------------------------------------------------------------------------|
|-------------------------8-8-8-8-8-8-8-8-3-3-3-3-3-3-3-3-5-5-5-5-5-5-5-5-|
|-12-12-12-12-12-12-12-12-8-8-8-8-8-8-8-8-3-3-3-3-3-3-3-3-5-5-5-5-5-5-5-5-|
|-0--0--0--0--0--0--0--0--8-8-8-8-8-8-8-8-3-3-3-3-3-3-3-3-5-5-5-5-5-5-5-5-|

distortion again

|---------------------------------------------------------------------------------|
|---------------------------------------------------------------------------------|
|---------------------------------10-10-10-10-10-10-10-10-------------------------|
|-0-0-0-0-0-0-0-0-8-8-8-8-8-8-8-8-10-10-10-10-10-10-10-10-10-10-10-10-10-10-10-10-|
|-0-0-0-0-0-0-0-0-8-8-8-8-8-8-8-8-8--8--8--8--8--8--8--8--10-10-10-10-10-10-10-10-|
|-0-0-0-0-0-0-0-0-8-8-8-8-8-8-8-8-------------------------10-10-10-10-10-10-10-10-|



|-----------------------------------------------------------------|
|-----------------------------------------------------------------|
|-----------------------------------------------------------------|
|-0-0-0-0-0-0-0-0-8-8-8-8-8-8-8-8-3-3-3-3-3-3-3-3-5-5-5-5-5-5-5-5-|
|-0-0-0-0-0-0-0-0-8-8-8-8-8-8-8-8-3-3-3-3-3-3-3-3-5-5-5-5-5-5-5-5-|
|-0-0-0-0-0-0-0-0-8-8-8-8-8-8-8-8-3-3-3-3-3-3-3-3-5-5-5-5-5-5-5-5-|


|---------------------------------------------------------------------------------|
|---------------------------------------------------------------------------------|
|---------------------------------10-10-10-10-10-10-10-10-------------------------|
|-0-0-0-0-0-0-0-0-8-8-8-8-8-8-8-8-10-10-10-10-10-10-10-10-10-10-10-10-10-10-10-10-|
|-0-0-0-0-0-0-0-0-8-8-8-8-8-8-8-8-8--8--8--8--8--8--8--8--10-10-10-10-10-10-10-10-|
|-0-0-0-0-0-0-0-0-8-8-8-8-8-8-8-8-------------------------10-10-10-10-10-10-10-10-|



|-----------------------------------------------------------------|
|-----------------------------------------------------------------|
|-----------------------------------------------------------------|
|-0-0-0-0-0-0-0-0-8-8-8-8-8-8-8-8-3-3-3-3-3-3-3-3-5-5-5-5-5-5-5-5-|
|-0-0-0-0-0-0-0-0-8-8-8-8-8-8-8-8-3-3-3-3-3-3-3-3-5-5-5-5-5-5-5-5-|
|-0-0-0-0-0-0-0-0-8-8-8-8-8-8-8-8-3-3-3-3-3-3-3-3-5-5-5-5-5-5-5-5-|

not so distortion
|-----------------------------------------------------------------|
|-----------------------------------------------------------------|
|-----------------------------------------10-10-10-10-10-10-10-10-|
|-------------------------8-8-8-8-8-8-8-8-10-10-10-10-10-10-10-10-|
|-12-12-12-12-12-12-12-12-8-8-8-8-8-8-8-8-8--8--8--8--8--8--8--8--|
|-0--0--0--0--0--0--0--0--8-8-8-8-8-8-8-8-------------------------|



|--------------------------------------------------|
|--------------------------------------------------|
|--------------------------------------------------|
|-10-10-10-10-10-10-10-10--------------------------|
|-10-10-10-10-10-10-10-10-12-12-12-12-12-12-12-12--|
|-10-10-10-10-10-10-10-10-0--0--0--0--0--0--0--0---|



|-------------------------------------------------|
|-------------------------------------------------|
|-------------------------------------------------|
|-8-8-8-8-8-8-8-8-3-3-3-3-3-3-3-3-5-5-5-5-5-5-5-5-|
|-8-8-8-8-8-8-8-8-3-3-3-3-3-3-3-3-5-5-5-5-5-5-5-5-|
|-8-8-8-8-8-8-8-8-3-3-3-3-3-3-3-3-5-5-5-5-5-5-5-5-|


|-----------------------------------------------------------------------------|
|-----------------------------------------------------------------------------|
|-----------------------------10-10-10-10-10-10-10-10-------------------------|
|-------------8-8-8-8-8-8-8-8-10-10-10-10-10-10-10-10-10-10-10-10-10-10-10-10-|
|-12-13-12-10-8-8-8-8-8-8-8-8-8--8--8--8--8--8--8--8--10-10-10-10-10-10-10-10-|
|-0--0--0--0--8-8-8-8-8-8-8-8-------------------------10-10-10-10-10-10-10-10-|



|-------------------------------------------------------------------------|
|-------------------------------------------------------------------------|
|-------------------------------------------------------------------------|
|-------------------------8-8-8-8-8-8-8-8-3-3-3-3-3-3-3-3-5-5-5-5-5-5-5-5-|
|-12-12-12-12-12-12-12-12-8-8-8-8-8-8-8-8-3-3-3-3-3-3-3-3-5-5-5-5-5-5-5-5-|
|-0--0--0--0--0--0--0--0--8-8-8-8-8-8-8-8-3-3-3-3-3-3-3-3-5-5-5-5-5-5-5-5-|

distortion again

|---------------------------------------------------------------------------------|
|---------------------------------------------------------------------------------|
|---------------------------------10-10-10-10-10-10-10-10-------------------------|
|-0-0-0-0-0-0-0-0-8-8-8-8-8-8-8-8-10-10-10-10-10-10-10-10-10-10-10-10-10-10-10-10-|
|-0-0-0-0-0-0-0-0-8-8-8-8-8-8-8-8-8--8--8--8--8--8--8--8--10-10-10-10-10-10-10-10-|
|-0-0-0-0-0-0-0-0-8-8-8-8-8-8-8-8-------------------------10-10-10-10-10-10-10-10-|



|-----------------------------------------------------------------|
|-----------------------------------------------------------------|
|-----------------------------------------------------------------|
|-0-0-0-0-0-0-0-0-8-8-8-8-8-8-8-8-3-3-3-3-3-3-3-3-5-5-5-5-5-5-5-5-|
|-0-0-0-0-0-0-0-0-8-8-8-8-8-8-8-8-3-3-3-3-3-3-3-3-5-5-5-5-5-5-5-5-|
|-0-0-0-0-0-0-0-0-8-8-8-8-8-8-8-8-3-3-3-3-3-3-3-3-5-5-5-5-5-5-5-5-|


|---------------------------------------------------------------------------------|
|---------------------------------------------------------------------------------|
|---------------------------------10-10-10-10-10-10-10-10-------------------------|
|-0-0-0-0-0-0-0-0-8-8-8-8-8-8-8-8-10-10-10-10-10-10-10-10-10-10-10-10-10-10-10-10-|
|-0-0-0-0-0-0-0-0-8-8-8-8-8-8-8-8-8--8--8--8--8--8--8--8--10-10-10-10-10-10-10-10-|
|-0-0-0-0-0-0-0-0-8-8-8-8-8-8-8-8-------------------------10-10-10-10-10-10-10-10-|



|-----------------------------------------------------------------|
|-----------------------------------------------------------------|
|-----------------------------------------------------------------|
|-0-0-0-0-0-0-0-0-8-8-8-8-8-8-8-8-3-3-3-3-3-3-3-3-5-5-5-5-5-5-5-5-|
|-0-0-0-0-0-0-0-0-8-8-8-8-8-8-8-8-3-3-3-3-3-3-3-3-5-5-5-5-5-5-5-5-|
|-0-0-0-0-0-0-0-0-8-8-8-8-8-8-8-8-3-3-3-3-3-3-3-3-5-5-5-5-5-5-5-5-|

interlude/solo build up


|-------------------------------------------------------------|
|-------------------------------------------------------------|
|-------------------------------------------7-7-7-7-7-7-7-7-7-|
|-8-8-8-8-8-8-8-8-8-10-10-10-10-10-10-10-10-7-7-7-7-7-7-7-7-7-|
|-8-8-8-8-8-8-8-8-8-10-10-10-10-10-10-10-10-5-5-5-5-5-5-5-5-5-|
|-8-8-8-8-8-8-8-8-8-10-10-10-10-10-10-10-10-------------------|



|----------------------------------------------------------------------------|
|----------------------------------------------------------------------------|
|----------------------------------------------------------------------------|
|-7-7-7-7-7-7-7-7-8-8-8-8-8-8-8-8-10-10-10-10-10-10-10-10-5-5-5-5-5-5-5-5--5-|
|-7-7-7-7-7-7-7-7-8-8-8-8-8-8-8-8-10-10-10-10-10-10-10-10-5-5-5-5-5-5-5-5--5-|
|-7-7-7-7-7-7-7-7-8-8-8-8-8-8-8-8-10-10-10-10-10-10-10-10-5-5-5-5-5-5-5-5--5-|

solo

|--------------------------------------------------|
|-10-10-10-10-10-10-10-10-10-10-10-10-10-10-10-10--|
|-7--7--7--7--7--7--7--7--7--7--7--7--7--7--7--7---|
|--------------------------------------------------|
|--------------------------------------------------|
|--------------------------------------------------|


|--------------------------------------------------|
|--------------------------------------------------|
|-9--9--9--9--9--9--9--9--12-12-12-12-12-12-12-12--|
|-10-10-10-10-10-10-10-10-10-10-10-10-10-10-10-10--|
|--------------------------------------------------|
|--------------------------------------------------|

|--------------------------------------------------|
|--------------------------------------------------|
|-10-10-10-10-10-10-10-10-10-10-10-10-10-10-10-10--|
|-7--7--7--7--7--7--7--7--7--7--7--7--7--7--7--7---|
|--------------------------------------------------|
|--------------------------------------------------|


|----------------------------------|
|----------------------------------|
|----------------------------------|
|-10-10-10-10-10-10-10-10-9-9-9\/--|
|-8--8--8--8--8--8--8--8--7-7-7\/--|
|----------------------------------|

|--------------------------------------------------|
|-10-10-10-10-10-10-10-10-10-10-10-10-10-10-10-10--|
|-7--7--7--7--7--7--7--7--7--7--7--7--7--7--7--7---|
|--------------------------------------------------|
|--------------------------------------------------|
|--------------------------------------------------|


|--------------------------------------------------|
|--------------------------------------------------|
|-9--9--9--9--9--9--9--9--12-12-12-12-12-12-12-12--|
|-10-10-10-10-10-10-10-10-10-10-10-10-10-10-10-10--|
|--------------------------------------------------|
|--------------------------------------------------|

|--------------------------------------------------|
|--------------------------------------------------|
|-10-10-10-10-10-10-10-10-10-10-10-10-10-10-10-10--|
|-7--7--7--7--7--7--7--7--7--7--7--7--7--7--7--7---|
|--------------------------------------------------|
|--------------------------------------------------|


|----------------------------------|
|----------------------------------|
|----------------------------------|
|-10-10-10-10-10-10-10-10-9-9-9\/--|
|-8--8--8--8--8--8--8--8--7-7-7\/--|
|----------------------------------|

prechorus

|-----------------------------------------------------------------|
|-----------------------------------------------------------------|
|-----------------------------------------10-10-10-10-10-10-10-10-|
|-------------------------8-8-8-8-8-8-8-8-10-10-10-10-10-10-10-10-|
|-12-12-12-12-12-12-12-12-8-8-8-8-8-8-8-8-8--8--8--8--8--8--8--8--|
|-0--0--0--0--0--0--0--0--8-8-8-8-8-8-8-8-------------------------|



|--------------------------------------------------|
|--------------------------------------------------|
|--------------------------------------------------|
|-10-10-10-10-10-10-10-10--------------------------|
|-10-10-10-10-10-10-10-10-12-12-12-12-12-12-12-12--|
|-10-10-10-10-10-10-10-10-0--0--0--0--0--0--0--0---|



|-------------------------------------------------|
|-------------------------------------------------|
|-------------------------------------------------|
|-8-8-8-8-8-8-8-8-3-3-3-3-3-3-3-3-5-5-5-5-5-5-5-5-|
|-8-8-8-8-8-8-8-8-3-3-3-3-3-3-3-3-5-5-5-5-5-5-5-5-|
|-8-8-8-8-8-8-8-8-3-3-3-3-3-3-3-3-5-5-5-5-5-5-5-5-|

|-----------------------------------------------------------------|
|-----------------------------------------------------------------|
|-----------------------------------------10-10-10-10-10-10-10-10-|
|-------------------------8-8-8-8-8-8-8-8-10-10-10-10-10-10-10-10-|
|-12-12-12-12-12-12-12-12-8-8-8-8-8-8-8-8-8--8--8--8--8--8--8--8--|
|-0--0--0--0--0--0--0--0--8-8-8-8-8-8-8-8-------------------------|



|--------------------------------------------------|
|--------------------------------------------------|
|--------------------------------------------------|
|-10-10-10-10-10-10-10-10--------------------------|
|-10-10-10-10-10-10-10-10-12-12-12-12-12-12-12-12--|
|-10-10-10-10-10-10-10-10-0--0--0--0--0--0--0--0---|



|-------------------------------------------------|
|-------------------------------------------------|
|-------------------------------------------------|
|-8-8-8-8-8-8-8-8-3-3-3-3-3-3-3-3-5-5-5-5-5-5-5-5-|
|-8-8-8-8-8-8-8-8-3-3-3-3-3-3-3-3-5-5-5-5-5-5-5-5-|
|-8-8-8-8-8-8-8-8-3-3-3-3-3-3-3-3-5-5-5-5-5-5-5-5-|

chorus

|---------------------------------------------------------------------------------|
|---------------------------------------------------------------------------------|
|---------------------------------10-10-10-10-10-10-10-10-------------------------|
|-0-0-0-0-0-0-0-0-8-8-8-8-8-8-8-8-10-10-10-10-10-10-10-10-10-10-10-10-10-10-10-10-|
|-0-0-0-0-0-0-0-0-8-8-8-8-8-8-8-8-8--8--8--8--8--8--8--8--10-10-10-10-10-10-10-10-|
|-0-0-0-0-0-0-0-0-8-8-8-8-8-8-8-8-------------------------10-10-10-10-10-10-10-10-|



|-----------------------------------------------------------------|
|-----------------------------------------------------------------|
|-----------------------------------------------------------------|
|-0-0-0-0-0-0-0-0-8-8-8-8-8-8-8-8-3-3-3-3-3-3-3-3-5-5-5-5-5-5-5-5-|
|-0-0-0-0-0-0-0-0-8-8-8-8-8-8-8-8-3-3-3-3-3-3-3-3-5-5-5-5-5-5-5-5-|
|-0-0-0-0-0-0-0-0-8-8-8-8-8-8-8-8-3-3-3-3-3-3-3-3-5-5-5-5-5-5-5-5-|


|---------------------------------------------------------------------------------|
|---------------------------------------------------------------------------------|
|---------------------------------10-10-10-10-10-10-10-10-------------------------|
|-0-0-0-0-0-0-0-0-8-8-8-8-8-8-8-8-10-10-10-10-10-10-10-10-10-10-10-10-10-10-10-10-|
|-0-0-0-0-0-0-0-0-8-8-8-8-8-8-8-8-8--8--8--8--8--8--8--8--10-10-10-10-10-10-10-10-|
|-0-0-0-0-0-0-0-0-8-8-8-8-8-8-8-8-------------------------10-10-10-10-10-10-10-10-|



|-----------------------------------------------------------------|
|-----------------------------------------------------------------|
|-----------------------------------------------------------------|
|-0-0-0-0-0-0-0-0-8-8-8-8-8-8-8-8-3-3-3-3-3-3-3-3-5-5-5-5-5-5-5-5-|
|-0-0-0-0-0-0-0-0-8-8-8-8-8-8-8-8-3-3-3-3-3-3-3-3-5-5-5-5-5-5-5-5-|
|-0-0-0-0-0-0-0-0-8-8-8-8-8-8-8-8-3-3-3-3-3-3-3-3-5-5-5-5-5-5-5-5-|


|---------------------------------------------------------------------------------|
|---------------------------------------------------------------------------------|
|---------------------------------10-10-10-10-10-10-10-10-------------------------|
|-0-0-0-0-0-0-0-0-8-8-8-8-8-8-8-8-10-10-10-10-10-10-10-10-10-10-10-10-10-10-10-10-|
|-0-0-0-0-0-0-0-0-8-8-8-8-8-8-8-8-8--8--8--8--8--8--8--8--10-10-10-10-10-10-10-10-|
|-0-0-0-0-0-0-0-0-8-8-8-8-8-8-8-8-------------------------10-10-10-10-10-10-10-10-|



|-----------------------------------------------------------------|
|-----------------------------------------------------------------|
|-----------------------------------------------------------------|
|-0-0-0-0-0-0-0-0-8-8-8-8-8-8-8-8-3-3-3-3-3-3-3-3-5-5-5-5-5-5-5-5-|
|-0-0-0-0-0-0-0-0-8-8-8-8-8-8-8-8-3-3-3-3-3-3-3-3-5-5-5-5-5-5-5-5-|
|-0-0-0-0-0-0-0-0-8-8-8-8-8-8-8-8-3-3-3-3-3-3-3-3-5-5-5-5-5-5-5-5-|


|---------------------------------------------------------------------------------|
|---------------------------------------------------------------------------------|
|---------------------------------10-10-10-10-10-10-10-10-------------------------|
|-0-0-0-0-0-0-0-0-8-8-8-8-8-8-8-8-10-10-10-10-10-10-10-10-10-10-10-10-10-10-10-10-|
|-0-0-0-0-0-0-0-0-8-8-8-8-8-8-8-8-8--8--8--8--8--8--8--8--10-10-10-10-10-10-10-10-|
|-0-0-0-0-0-0-0-0-8-8-8-8-8-8-8-8-------------------------10-10-10-10-10-10-10-10-|



|-----------------------------------------------------------------|
|-----------------------------------------------------------------|
|-----------------------------------------------------------------|
|-0-0-0-0-0-0-0-0-8-8-8-8-8-8-8-8-3-3-3-3-3-3-3-3-5-5-5-5-5-5-5-5-|
|-0-0-0-0-0-0-0-0-8-8-8-8-8-8-8-8-3-3-3-3-3-3-3-3-5-5-5-5-5-5-5-5-|
|-0-0-0-0-0-0-0-0-8-8-8-8-8-8-8-8-3-3-3-3-3-3-3-3-5-5-5-5-5-5-5-5-|

outro

|-----------------------------------------------------------------|
|-----------------------------------------------------------------|
|-----------------------------------------10-10-10-10-10-10-10-10-|
|-------------------------8-8-8-8-8-8-8-8-10-10-10-10-10-10-10-10-|
|-12-12-12-12-12-12-12-12-8-8-8-8-8-8-8-8-8--8--8--8--8--8--8--8--|
|-0--0--0--0--0--0--0--0--8-8-8-8-8-8-8-8-------------------------|


|--------------------------------------------------|
|--------------------------------------------------|
|--------------------------------------------------|
|-10-10-10-10-10-10-10-10--------------------------|
|-10-10-10-10-10-10-10-10-12-12-12-12-12-12-12-12--|
|-10-10-10-10-10-10-10-10-0--0--0--0--0--0--0--0---|



|-------------------------------------------|
|-------------------------------------------|
|-------------------------------------------|
|-8-8-8-8-8-8-8-8-3-3-3-3-3-3-3-3-5-5-5-5-5-|
|-8-8-8-8-8-8-8-8-3-3-3-3-3-3-3-3-5-5-5-5-5-|
|-8-8-8-8-8-8-8-8-3-3-3-3-3-3-3-3-5-5-5-5-5-|



Thats all there was. Throw a five star rating my way if ya like the tab.
comments
print report bad tab
4 comments total. Showing first comments.
0 reply
gateway01 wrote on January 15 2012, 09:47 am

Something about the Pinata tab in the verse is off. I think it's too high.

0 reply
metalslayer09 wrote on January 15 2012, 05:03 pm

yeah that song is a pain

0 reply
Team Goon wrote on February 15 2013, 11:50 pm

Nice job!! Thanks for tabbimg.

I want to post or [tab]
guest
You may want to rate the tab now too:
select rating
Please do not post tabs as comments. Select "correction" instead!