Oops, an error
Loading. Please wait.

Hats Off To The Bull Tab

ver1
ver1

Album

Whole song

Interactive

More versions @911Tabs.com
15,728 views 63 this week
1 commentread comment
1 2 3 4 5
excellent!
x 4
Autoscroll
+/-
esc
set tempo
stop
Contributor
Difficulty
Tuning
novice
C G C F A D
WARNING: You are trying to view
                                    content from Ultimate-Guitar.com
                                    in an unauthorized application,
                                    which is prohibited.

                                    Please use an official Ultimate
                                    Guitar Tabs application for iPhone,
                                    iPad or Android to access legitimate
                                    chords, guitar, bass, and drum tabs
                                    from Ultimate-Guitar.com database.

                                    Type "ultimate guitar tabs" in Apple
                                    App Store's or Android Market's
                                    search to find the application.
ARtist: Chevelle
Song: Hats off to the bull
Album: Hats off to the bull
Tabber: MEtalSlayer09
Tuning: Drop c

verse 1

halfway through you play this note a whole bunch

|----------------------------------------------------------------------------|
|----------------------------------------------------------------------------|
|-17-------------------------------------------------------------------------|
|----------------------------------------------------------------------------|
|----------------------------------------------------------------------------|
|----------------------------------------------------------------------------|


chorus

pick scrapes first


|-------------------------------------------------------------------------|
|-------------------------------------------------------------------------|
|-------------------------------------------------------------------------|
|-15-15-15-15-12-12-12-12-10-10-10-10-12-12-12-12--0---0---0--10-10-10-10-|     X3
|-15-15-15-15-12-12-12-12-10-10-10-10-12-12-12-12--0---0---0--10-10-10-10-|
|-15-15-15-15-12-12-12-12-10-10-10-10-12-12-12-12--0---0---0--10-10-10-10-|

|---------------------------------------------------------------|
|---------------------------------------------------------------|
|---------------------------------------------------------------|
|-15-15-15-15-12-12-12-12-10-10-10-10-12-12-12-12--0---0---0--\-|
|-15-15-15-15-12-12-12-12-10-10-10-10-12-12-12-12--0---0---0--\-|
|-15-15-15-15-12-12-12-12-10-10-10-10-12-12-12-12--0---0---0--\-|



verse 2




|-----------------------------------------------|
|-----------------------------------------------|
|-11-11-11-11-11-11-11-11-11-11-11-11-11-11h12--|       x2
|-----------------------------------------------|
|-----------------------------------------------|
|-----------------------------------------------|


|-----------------------------------------------------------------------------------------|
|-----------------------------------------------------------------------------------------|
|-19-----------------------------------17-------------------------------------------------|
|-----------------------------------------------------------------------------------------|
|-----------------------------------------------------------------------------------------|
|-----------------------------------------------------------------------------------------|
|
|-----------------------------------------------------------------------------------------|
|-----------------------------------------------------------------------------------------|
|----------7-7-7-7-5--------7-7-5-7b--------11-11-11-11-11-11-11-11-11-11-11-11-11-11h12--|
|-----------------------------------------------------------------------------------------|
|-----------------------------------------------------------------------------------------|
|-----------------------------------------------------------------------------------------|

chorus

pick scrapes first


|-------------------------------------------------------------------------|
|-------------------------------------------------------------------------|
|-------------------------------------------------------------------------|
|-15-15-15-15-12-12-12-12-10-10-10-10-12-12-12-12--0---0---0--10-10-10-10-|     X3
|-15-15-15-15-12-12-12-12-10-10-10-10-12-12-12-12--0---0---0--10-10-10-10-|
|-15-15-15-15-12-12-12-12-10-10-10-10-12-12-12-12--0---0---0--10-10-10-10-|

|---------------------------------------------------------------|
|---------------------------------------------------------------|
|---------------------------------------------------------------|
|-15-15-15-15-12-12-12-12-10-10-10-10-12-12-12-12--0---0---0--\-|
|-15-15-15-15-12-12-12-12-10-10-10-10-12-12-12-12--0---0---0--\-|
|-15-15-15-15-12-12-12-12-10-10-10-10-12-12-12-12--0---0---0--\-|


interlude


|-----------------------------------------------------------------------------------------------|
|---11---11----11---11---11---11---11---11---11---11---11---11---12---12---12---12--------------|
|-7----7----7-----7----7----7----7----7----7----7----7----7----7----7----7----7-----------------|
|-----------------------------------------------------------------------------------------------|
|-----------------------------------------------------------------------------------------------|
|-----------------------------------------------------------------------------------------------|
|
|-----------------------------------------------------------------------------------------------|
|-----------------------------------------------------------------------------------------------|
|-----------------------------------------------------------------------------------------------|
|-----------------------------------------------------------------------------------------------|
|-------10--10--10--10----------8--8--8--8-----------7---7---7---7------5--5--5--5--------------|
|-0--0-------------------0--0-----------------0--0-----------------0--0-------------------------|

|-----------------------------------------------------------------------------------------------|
|---11---11----11---11---11---11---11---11---11---11---11---11---12---12---12---12--------------|
|-7----7----7-----7----7----7----7----7----7----7----7----7----7----7----7----7-----------------|
|-----------------------------------------------------------------------------------------------|
|-----------------------------------------------------------------------------------------------|
|-----------------------------------------------------------------------------------------------|
|
|-----------------------------------------------------------------------------------------------|
|-----------------------------------------------------------------------------------------------|
|-----------------------------------------------------------------------------------------------|
|-----------------------------------------------------------------------------------------------|
|-------10--10--10--10----------8--8--8--8-----------7---7---7---7------5--5--5--5--------------|
|-0--0-------------------0--0-----------------0--0-----------------0--0-------------------------|


|----------------------------------------------------------------------------------|
|----------------------------------------------------------------------------------|
|-------12--12--12--12----------10-10-10-10---------9--9--9--9--------8\7--7--7----|
|----------------------------------------------------------------------------------|
|-------10--10--10--10----------8--8--8--8----------7--7--7--7--------6\5--5--5----|
|-0--0------------------0--0-----------------0--0---------------0--0---------------|



|----------------------------------------------------------------------------------|
|----------------------------------------------------------------------------------|
|-------12--12--12--12----------10-10-10-10---------9--9--9--9--------8\7--7--7----|
|----------------------------------------------------------------------------------|
|-------10--10--10--10----------8--8--8--8----------7--7--7--7--------6\5--5--5----|
|-0--0------------------0--0-----------------0--0---------------0--0---------------|


|---------------------------------------------------------------------------------|
|---------------------------------------------------------------------------------|
|-13t------------------------------------------\10t-------------------------------|
|---------------------------------------------------------------------------------|
|-11t------------------------------------------\8t--------------------------------|
|---------------------------------------------------------------------------------|
|
|----------------------------------------------------------------------------------|
|----------------------------------------------------------------------------------|
|-------13--13--13--13----------10-10-10-10---------9--9--9--9--------8\7--7--7----|
|----------------------------------------------------------------------------------|
|-------11--11--11--11----------8--8--8--8----------7--7--7--7--------6\5--5--5----|
|-0--0------------------0--0-----------------0--0---------------0--0---------------|


|---------------------------------------------------------------------------------|
|---------------------------------------------------------------------------------|
|-13t------------------------------------------\10t-------------------------------|
|---------------------------------------------------------------------------------|
|-11t------------------------------------------\8t--------------------------------|
|---------------------------------------------------------------------------------|
|
|---------------------------------------------------------------------------------|
|---------------------------------------------------------------------------------|
|-----13--13--13--13-----------10-10-10-10----------9--9--9--9--7\9-9-9\10-10-10--|
|---------------------------------------------------------------------------------|
|-----11--11--11--11-----------8--8--8--8-----------7--7--7--7--5\7-7-7\8--8--8---|
|-0--0------------------0--0-----------------0--0---------------------------------|

|---------------------------------------------------------------------------------|
|---------------------------------------------------------------------------------|
|-15t-------------------------------------------\10t------------------------------|
|---------------------------------------------------------------------------------|
|-13t-------------------------------------------\8t-------------------------------|
|---------------------------------------------------------------------------------|
|
|---------------------------------------------------------------------------------|
|---------------------------------------------------------------------------------|
|-------13--13--13--13----------10-10-10-10---------9--9--9--9--------8\7--7--7---|
|---------------------------------------------------------------------------------|
|-------11--11--11--11----------8--8--8--8----------7--7--7--7--------6\5--5--5---|
|-0--0------------------0--0-----------------0--0---------------0--0--------------|


|--------------------------------------------------------------------------------------------|
|--------------------------------------------------------------------------------------------|
|---------------------17t--------------------------19t----------------21t--------19----19----|
|--------------------------------------------------------------------------------------------|
|---------------------15t--------------------------17t----------------19t--------17-17---17\-|
|--------------------------------------------------------------------------------------------|
|
|--------------------------------------------------------------------------------------------|
|--------------------------------------------------------------------------------------------|
|-------13--13--13--13---------17-17-17-17---------19-19-19-19--------21-21-21-21-19---------|
|--------------------------------------------------------------------------------------------|
|-------11--11--11--11---------15-15-15-15---------17-17-17-17--------19-19-19-19-17---------|
|-0--0------------------0--0-----------------0--0---------------0--0-------------------------|


prechorus

|-------------------------------------------------------------------------|
|-------------------------------------------------------------------------|
|-------------------------------------------------------------------------|    x3
|-------------------------------------------------------------------------|
|-------------------------------------------------------------------------|
|-15-15-15-15-12-12-12-12-10-10-10-10-12-12-12-12--0---0---0--10-10-10-10-|


|-------------------------------------------------------------------------|
|-------------------------------------------------------------------------|
|-------------------------------------------------------------------------|
|-------------------------------------------------------------------------|
|-------------------------------------------------------------------------|
|-15-15-15-15-12-12-12-12-10-10-10-10-12-12-12-12--0---0---0--------------|

chorus

|-------------------------------------------------------------------------|
|-------------------------------------------------------------------------|
|-------------------------------------------------------------------------|
|-15-15-15-15-12-12-12-12-10-10-10-10-12-12-12-12--0---0---0--10-10-10-10-|     X4
|-15-15-15-15-12-12-12-12-10-10-10-10-12-12-12-12--0---0---0--10-10-10-10-|
|-15-15-15-15-12-12-12-12-10-10-10-10-12-12-12-12--0---0---0--10-10-10-10-|



|--------------------------------------------------------------------------------------|
|--------------------------------------------------------------------------------------|
|--------------------------------------------------------------------------------------|
|-15-15-15-15-12-12-12-12-10-10-10-10-12-12-12-12--10h12-12-12-10h12-12-12-10h12-12-12-|    X3
|-15-15-15-15-12-12-12-12-10-10-10-10-12-12-12-12--10h12-12-12-10h12-12-12-10h12-12-12-|
|-15-15-15-15-12-12-12-12-10-10-10-10-12-12-12-12--10h12-12-12-10h12-12-12-10h12-12-12-|


|---------------------------------------------------------------|
|---------------------------------------------------------------|
|---------------------------------------------------------------|
|-15-15-15-15-12-12-12-12-10-10-10-10-12-12-12-12--0---0---0--\-|
|-15-15-15-15-12-12-12-12-10-10-10-10-12-12-12-12--0---0---0--\-|
|-15-15-15-15-12-12-12-12-10-10-10-10-12-12-12-12--0---0---0--\-|
comments
print report bad tab
1 comment total.
0 reply
sqwags wrote on January 26 2014, 03:00 pm

Excellent tab

I want to post or [tab]
guest
You may want to rate the tab now too:
select rating
Please do not post tabs as comments. Select "correction" instead!